Leçon de guitare blues: LAm Pentatonique

Leçon de guitare Blues en la - playback.

♫ Atari Blues ♫

Comment jouer Guitar Boogie en sol

LITTLE BOB- The Phone Call

Les rockers du Havre

retrouver ce média sur www.ina.fr


Les rockers du Havre : les moyens d'existence, le chômage, les lieux où l'on peut faire de la musique, les maisons de disques, ce que représente le rock pour eux. Interview de nombreux rockers havrais : le groupe FIXED UP, Jérome SOLIGNY et Marc MINNELLI, le groupe CITY KIDS, le groupe BAD BRAINS, ROCK NEW HAVRE ,le groupe OX, Michel COUSIN (qui arbore une belle "banane" de rocker rockabilly), le groupe SOUND MAKER, ROCKY.


.

Apprendre La Guitare Blues

Blues Guitar Basics:
Steps One & Two Combined

Faites le premier pas vers la maîtrise de la guitare blues. Ce livre vous guidera à travers tout ce que vous devez savoir pour commencer à jouer de la guitare blues.

Philippe Ménard, One Man Band

Après s’être illustré avec TEQUILA , Philippe Ménard, le guitariste chanteur du groupe, s’est converti dans le One Man Band, remettant à l’honneur la tradition du blues dans laquelle un seul musicien joue à la fois de la guitare, de l’harmonica et de diverses percussions (grosse caisse, tambourin, caisse claire).

Il alterne avec bonheur les couleurs sonores : acoustiques et électriques, restant fidèle à son style « rock & blues ». Cette formule lui permet d’explorer aussi bien le blues des précurseurs de genre Joe Hill Louis, Juke Boy Bonner… que celui des sixties/seventies tels Hendrix, Gallagher, Stones… tout en présentant ses compositions.




www.philippemenard.com

Philippe Menard


Philippe Menard à COUERON
envoyé par chabossiere. - Regardez plus de clips, en HD !

Toni BRaxton Love Me Tender

Norah Jones love me tender

Love Me Tender -The Timers-

love me tender


Love me tender.... Or else...
envoyé par svenstar07. - Watch more comedy videos and sitcoms.

Elvis Presley - Love Me Tender

Paroles de Love me tender

(words & music by vera matson - elvis presley)
Love me tender,
Love me sweet,
Never let me go.
You have made my life complete,
And I love you so.

Love me tender,
Love me true,
All my dreams fulfilled.
For my darlin I love you,
And I always will.

Love me tender,
Love me long,
Take me to your heart.
For it's there that I belong,
And well never part.

Love me tender,
Love me dear,
Tell me you are mine.
Ill be yours through all the years,
Till the end of time.

(when at last my dreams come true
Darling this I know
Happiness will follow you
Everywhere you go).

Partition LOVE ME TENDER E.Presley

 

Intro
e------------
B----0-----0-
G----0-----0- x2
D-0----------
A------------
E-------3----


Couplet 1
G A7 D7 G
G A7 D7 G


REFRAIN
G B7 Em G7

C Cm G

E7 A

D7 G


Couplet 2
G A7 D7 G

G A7 D7 G


REFRAIN
G B7 Em G7

C Cm G

E7 A

D7 G

Couplet 3
G A7 D7 G

G A7 D7 G


REFRAIN FINAL
G B7 Em G7

C Cm G

E7 A

D7 G

Tablature Love in vain (Robert Johnson)



E||--10----10--10--10--10--10--10--|--10----9-----9---9---9---9---|
B||--12----12--12--12--12--12--12--|--12----11----11--11--11--11--|
G||--------------------------------|------------------------------|
D||--------------------------------|------------------------------|
A||--------------------------------|------------------------------|
E||--------------------------------|------------------------------|



--9-----8---8---8---8---8-----|--8--------3--5--3--3--3--|
--11----10--10--10--10--10----|--10----------------------|
------------------------------|--------0--------3--------|
------------------------------|--------------------------|
------------------------------|--------------------------|
------------------------------|--------------------------|



--3--3--3--3----3----2--|--2--2--2--2-----------|--3--------------------|
---------------------1--|--1--1--1--1-----------|--0-----------------3--|
--2--------2----1-------|-----------------------|-----------------------|
---------------------0--|--0--0-----0----0------|-----------------------|
------------------------|--0--------0----0------|-----------2--2--2-----|
------------------------|--2--------2----2------|--3--------3--3--3-----|



--1----1-----------------|--1-------------------|--1-----1--1----1--------|
--3----------------2--3--|--3-------------------|-----3-----3----3--------|
-------------------0-----|----------------------|-------------------------|
----------0--0--0--------|----------------------|-------------------------|
----------2--2--2--------|--2----2----2----2----|--2--------2-------2--2--|
--3-------3--3--3--------|--3----3----3----3----|--3--------3-------3--3--|



--3----3----3----------|--3--------------------|-------1-----------2--2--|
-----------------------|--1--------------------|--3-------------1-----1--|
-----------------------|--------------------0--|-------------0--------0--|
--3--------------------|-------2----2----2-----|----------0--0--------0--|
------------3----2--2--|--2----3----3----3-----|----------2--------------|
------------3----------|--3--------------------|--3----------------------|



--3-------------------|--3--------------------|--------2--2--2---------|
--0-------------------|-----------------------|-----1------------------|
----------------------|-----------------------|------------------------|
----------------------|-------2----2----0-----|--0----------------0----|
--2----2----2----2----|-------0----0----0-----|--0----------------0----|
--3----3----3----3----|--0--------------0--2--|--2-----2-----2----2----|



--3-------------------|--3-----2--------------||
----------------------|-----1--1--------------||
----------------------|-----------------------||
--3----2----1----0----|--------0----0----0----||
----------------------|--------0----0----0----||
----------------------|--3-----2----2----2----||

Tablature 32-20 Blues (Robert Johnson)



E ||--9-------------------|--8--8--------7--7--------|-------5----5--5--5----|
C#||--8-------------------|--7--7--------6--6--------|------------5----------|
A ||--9-------------------|--8--8-----7--7--7--------|-----------------------|
E ||----------------------|--------------------7--6--|--2---------5--4--3----|
A ||--0----0----0----0----|--0-----0-----0-----0-----|--0--------------------|
E ||----------------------|--------------------------|-----------------------|



--5--0----0--0----------|--0-------------------|--5-------------------|
------------------------|----------------------|----------------------|
------------------------|----------------------|----------------------|
--2-------0-------0--0--|----------------------|----------------------|
----------2-------2-----|--0----0----0----0----|--0----0----0----0----|
----------0-------0-----|----------------------|----------------------|



--0--------0--0--0--0-----|--5----4----3---------|----------------------|
--2-----------1--------2--|----------------------|----------------------|
-----------------------2--|----------------------|--5-------------------|
--------------------4-----|-------2--------------|--4----4----4----4----|
--0--0--0--0--------0-----|--0----0----0----0----|--5----5----5----5----|
--------------------------|----------------------|----------------------|



----------------------|-----5--3--3--------0----|--5--3--2--0-----------0--|
----------------------|-----------------2-------|--------------------------|
-------5--------------|-------------------------|--------------------------|
--4----4----4----4----|--------2-----2----------|--2-----------------2-----|
--5----5----5----5----|--0--0--------0----------|--0--------------4--0-----|
----------------------|-------------------------|--------0-----0-----------|



----------------------|------------------------|-----5--5--5--5--5--5--0--|
----------------------|---------------1--------|--------------------------|
----------------------|--------------------2---|--------5-----2-----2-----|
--0----0----0----0----|--0---------------------|--------------4-----3-----|
--2----2----2----2----|--0----0----0----0------|--0-----------------------|
--0----0----0----0----|--2----2----2----2------|--------------------------|



--0----0--------------|--9--------------------|--8-------------------|
----------------------|--8--------------------|--7-------------------|
----------------------|--9-----------8--------|----------------------|
----------0-----------|-----------------------|----------------------|
----------2-----------|--0--0--0--0-----------|--0----0----0----0----|
--0------------0------|-----------------------|----------------------|



--9-------------------|--5----5--4----3--3-----|----------------------|
--8-------------------|------------------------|----------------------|
--9-------------------|------------------------|----------------------|
----------------------|------------------------|--4----4----4----4----|
--0----0----0----0----|--0-------0----0-----0--|--5----5----5----5----|
----------------------|------------------------|----------------------|



----------------------|-------0--------------|-------5--3--2--2--5-----|
----------------------|-------2--------------|-------------------------|
--5-------------------|----------------------|--2----------------------|
--4----4----4----4----|-----------------2----|----------2-----2--------|
--5----5----5----5----|--0---------0----0----|--0-------0-----0--------|
----------------------|----------------------|----------------------0--|



----------------------|------------------------|-------5-----5----5--5--|
----------------------|-----------1------------|------------------2--2--|
----------------------|-------------------2----|------------------4--3--|
--0----0----0----0----|--0---------------------|--2-------5-------------|
--2----2----2----2----|--0--0--0-----0---------|------------------------|
--0----0----0----0----|--2--2--2-----2---------|------------------------|



--0----0---------------|-------5----5----5----|-----------------3----||
------------3----------|----------------------|--0--------------2----||
------------1----------|--2-------------------|-------0---------2----||
--0---------------0----|--2----5----4----3----|------------0----2----||
-------2-------2-------|--0-------------------|-----------------0----||
--0----0-------0-------|----------------------|----------------------||

Tablature Crossroad Blues / Robert Johnson





Intro
w/slide
|--11/12----11/12~~~----------------------------------------|
|-----------11/12------11/12--------------------------------|
|-----------------------------12~~~---10-3/4------0---------|
|-----------------------------------------3/4------0--------|
|-----------------------------------------------------------|
|-----------------------------------------------------------|

|-----------------------------------------11/12----|
|-----------------------------------------11/12----|
|-----x--0-0-0-0--0--0-0---0-----------x-----------|
|--------3-3-3-2--2--1-1---0-----0-----x-----------|
|--0-------------------------2/4-------------------|
|--------3-----2-----1-1---0-------0---x-----------|

Verse

|--11/12--0-------------7/10-12-12-12-12~~-------------------|
|--11/12----------------7/10-12-12-12-12~~-------------------|
|-----------------------7/10-12-12-12-12~~-------------------|
|-----0-----0---0---0------------------0----11---------------|
|-----0-----0-x-0---0-----------------------11---2-----------|
|-------------------------------------------11---0-----------|

|---11/12-11/12-12-12-12------------12-11-12-11/12--11/12------0-0------|
|---11/12-11/12-12-12-12------10/12-12-11-12-11/12--11/12------0-0------|
|------------------------------10/12--0-----0--------------12--0-0------|
|-0-----------------------0-----------------------0--------12--0-0------|
|-0-----------------------0---0-----------------------------------------|
|-----------------------------------------------------------------------|


|---5--5--5--3--2--0------0---------5--3---3-----2--2--3-------|
|---0--0--0--0--0--0--0---0---------0--0---0-----3--3--0-------|
|------0--0-----0--0--3bq-0---------0--0---0-------------------|
|-0----------------0--0---0------0--0--0---0--------0--0-------|
|-0------------------------------0---------------------0-------|
|---------------------------2-0---------------0----------------|


|---8bq---5---8h10-8-----------8bq----5---8bq--5-----|
|-------5---5-----------------------5---5------------|
|-------5---5----0------------------------5----------|
|------------------------------------------------0---|
|-0------------------0-7/12--0-------------------0---|
|----------------------------------------------------|

|---11/12-12-11-12-11/12--12-----------5-3-2-0-----0----------------|
|---11/12-12-11-12-11/12--12-12-------0-0-0-0-------0---------------|
|---11/12-12-11-12-11/12--12-12---------0-----3bqp0-0-3-0-----------|
|----------------------0----------0---0--0---------------0--0-------|
|-0--------0------------------0---0---0--0--------------------------|
|-0---------------------------------0---------------------3---------|

|---5-3-0--2-2-3-------------------------|
|---0-0-0--3-3-3-------------------------|
|---0-0-0----0-0-------------------------|
|-0---0-0-0----0-------4/5~~~~-----------|
|-0---0-0-0----0------------------0------|
|------------------------------3---------|


|---5-3-2-0-0----------------5-5---5-------11/12-----|
|---0-0-0-0-0----------------0-0---0-------11/12-----|
|---0-0---0-0--3bq--0---0----0-0---0-----------------|
|-0-0-0-----0--0----0---0----0-0---0----0------------|
|-0---------0-------0-----0----------0--0------------|
|---------------------3------------------------------|

Tablature Johnson Robert / crossroad

 E---------------------------|
B---------------------------|
D----2--0--2----0--2--0-----|jouer sa 4 fois , puis
G---------------------------|
A--0---------------------3b-|
E---------------------------|
' ' ' '

E--------2--------------|-------2----------------|
B---1----------1----1---|---1---------1----1-----|
D-----2----------2----2-|-----2---------2--------|
G-0---------------------|-0------------------3b--|
A-----------------------|------------------------|
E-----------------------|------------------------|
' ' ' ' ' ' ' '

E--------------------------|------------------------|
B--------------------------|------------------------|
D---2--0--2----0--2--0-----|---2--0--2----0--2--0---|
G--------------------------|------------------------|
A-0---------------------3b-|-0----------------------|
E--------------------------|----------------------3b|
' ' ' '


E---------0-----------0-|--2-----------------|
B---0-----------4-------|--1--------------1--|
D------1-----------4----|--2--------0--2-----|
G-----------------------|--0--0--2-----------|
A-----------------------|--------------------|
E-0---------------------|--------------------|
' ' ' ' ' ' ' '

E----0--5--3--0-----|---0------------|-0-------|
B----------4----3-1-|-2---2----------|-1-------|
D-2---------------0-|-2-----2--------|-0-------|
G-------------------|----------------|-2-------|
A-0-----------------|----------------|-0-------|
E-------------------|------------0---|---------|
' ' ' ' ' ' ' ' ' ' ' '

Tablature sweet home chicago/ Robert Johnson










Introduction




E--12--12--12---|-12-12-12-12-12-12-12-9/10-|-10--0-------------------|
B---------------|---------------------------|--------------0----------|
G---------------|---------------------------|-9---------2--------2----|
D---------------|-11----------10----10---9--|-9---0--1--------1-------|
A---------------|---------------------------|--------2--------2-------|
E---------------|---------------------------|--------2--------2-----2-|



Oh - ah. Baby don't you want to go?

E E6 E7/5 E7/6 A5 A6 A7 A6 E E6 E5 E6

E------------------|-------------------|-----0--------------|
B----0-------------|-------------------|--------------------|
G--0-1-----------0-|--2-------------0--|-0-1-----------0-0--|
D----------0---0---|--2---4---5---4----|--------------------|
A------4-----2-4---|--0-0-0-0-0-0-0----|---2---4-2-2-4------|
E------0-0---0-0---|-------------------|---0---0-0-0-0------|



Oh - oh. Baby don't you want to go?

E E6 E5 E6 A5 A6 A7 A6 A7 A6 A7 A6

E------0---------------|-------------------|-----0--------------|
B----------------------|-------------------|--------------------|
G--0-1---------------0-|----------------0--|-0-1-----------0-0--|
D----------------------|--2---4---5-5-4----|--------------------|
A----2---2-4-4-2-2-4---|--0-0-0-0-0-0-0-0--|---2---4-2-2-4------|
E----0---0-0-0-0-0-0---|-------------------|---0---0-0-0-0------|



Back to the land

E E6 E7 E6 E E6 E5 E6

E------0---------------|------0--------------|
B----------------------|---------------------|
G--0-1-------------0-0-|--0-1----------------|
D------------0---------|---------------------|
A----2---4---2---4---4-|----2---4-4-2-2-4----|
E----0---0-0-0-0-0---0-|----0-0-0-0-0-0-0-2--|



of California to my sweet home Chicago

B/F# B N.C. E5 E7 Edim7 Am

E----------------------|--7*----7*-7*-7*--------0-|----------0---0-0---0-|
B------------0---------|--8*-8*-8*-8*-8*--0--2----|--------3---2---1-----|
G--------------------0-|--------------------------|----2-4-----3---2-0-1-|
D--1----1----1---------|--------------------------|----------------------|
A--2----2----2---2-----|--------------------------|--2-------------------|
E--2----2--------------|--------------------------|--0-------------------|



E B7

E--------------------------------|
B--------0--0-----0-----0--------|
G--------------2--2--2--2-----0--|
D----2---1--1--------1-----1-----|
A----2------2--------2-----2-----|
E----0---2-----------------------|



Ending


N.C. E5/B E7 E6 C(no 5th) E5/B E7

E-----0--12---|--12-12----12-12-12-12-12-12--|--12--------10--10--|
B-------------|--------12--------------------|----------------9---|
G-------------|------------------------------|------0---------9---|
D---7/9-------|--12-------11-11-------10-10--|--9------9----------|
A-------------|------------------------------|--------------------|
E-------------|------------------------------|--------------------|

B minor bluesy metal lick

Tablature Hopkins Lightning / Big Mama Jump

Un très beau morceau d'un des maîtres du blues : Sam "Lightnin'" Hopkins.


E------------------/-----------0------/--0--------------0--------/
B---------------0--/--0--0--2--0--2---/--0--2-----------0--------/
G------------------/------------------/-----------0--1--------0--/
D---1-2------------/------------------/--------------------------/
A------------------/------------------/--------------------------/
e--------0---0-----/--0-----0--0--0---/--0-----0-----0-----0-----/




E-----------0----0---------/--0--------3b-----0--------------------/
B--------0--2----0----2----/--0--2------------0--------------------/
G-----1--------------------/---------------------------------------/
D--------------------------/---------------------------------------/
A--------------------------/---------------------------------------/
e-----0-----0----0----0----/--0-----0------0-----0-----------------/

Blues guitar Lesson - boom! boom! boom!

Boom! Boom! - John Lee Hooker

John Lee Hooker - Boom Boom

Tablature Hooker John Lee / boom boom

--------------------------------0--0--3--3--0--0--0--0---------------------------0--0--3--3--0--0--0--0--
-------3------------------------0--0--0--0--2--2--0--0---------------------------0--0--0--0--2--2--0--0--
---2/4------4/2p0---------------1--1--0--0--2--2--1--1------0--3p2--0------------1--1--0--0--2--2--1--1--
---------------------2--0---2---2--2--0--0--2--2--2--2----2------------2--0--2---2--2--0--0--2--2--2--2--
--------------------------------2--2--2--2--0--0--2--2---------------------------2--2--2--2--0--0--2--2--
--------------------------------0--0--3--3--------0--0---------------------------0--0--3--3--------0--0--


-------------------------------0--0--0--0--2--2--0--0----------------------------0--0--3--3--0--0--0--0--
--------3----------------------2--2--1--1--3--3--2--2----------------------------0--0--0--0--2--2--0--0--
---2/4-----4/2p0-------0---2---2--2--0--0--2--2--2--2------0--3p2--0-------------1--1--0--0--2--2--1--1--
--------------------2----------2--2--2--2--0--0--2--2----2------------2--0--2----2--2--0--0--2--2--2--2--
-------------------------------0--0--3--3--------0--0----------------------------2--2--2--2--0--0--2--2--
---------------------------------------------------------------------------------0--0--3--2--------0--0--



------------------------------2--2--2--2--0--0--0--0-----------------------------0--0--3--3--0--0--0--0--
--------3---------------------0--0--3--3--0--0--2--2-----------------------------0--0--0--0--2--2--0--0--
---2/4-----4/2p0--------------2--2--2--2--1--1--2--2----------------0-------2----1--1--0--0--2--2--1--1--
-------------------2--0-------1--1--0--0--2--2--2--2--------0---2-------2--------2--2--0--0--2--2--2--2--
--------------------------2---2--2--------2--2--0--0----2------------------------2--2--2--2--0--0--2--2--
------------------------------------------0--0-----------------------------------0--0--3--3--------0--0--

Play Slide Guitar

Souped Up Ford - Rory Gallagher

Tablature Gallagher Rory / Souped Up Ford

E||--------------------------------------|---------------------------------|
B||--1--1-----1--------1--1-----1--------|--1--------1---------------------|
G||--------0-----3--0--------0-----3--0--|---------------------------------|
D||--------------------------------------|-----3--2-----3--2--0-----2------|
A||--------------------------------------|-----------------------3---------|
E||--------------------------------------|---------------------------------|



--------------------------------------|------------------------------------|
--1--------1--------------------------|-------------------------1--1-------|
-----3--0-----------0--------0--------|-------------------------0--0----0--|
--------------3--2-----2--------2-----|-------------------------2--2-------|
--------------------------3--------3--|--3--1-----1-----1--3----3--3-------|
--------------------------------------|--------3-----3---------------------|



--------------------------------------|----------------------------------|
-----------------1-----------1--------|----------------------------------|
--------------------3--0--0-----3--0--|----------------------------------|
--2--------2--------------------------|--3--5--5--5--3--2--3-----5-3-2-3-|
-----3--3-----3-----------------------|----------------------------------|
--------------------------------------|----------------------------------|


C
--------------------------------|-------------------|--0----------------|
--------------------------------|-------------------|--1----------------|
--0-----------------------------|-------------------|--0----------------|
-----2--------------------------|-------------------|--2----------------|
--------3--3--------3--1--------|-------------------|--3----------------|
--------------------------3--1--|--3----------------|-------------------|


G Bb
------------------|--3----------------|------------------|--1----------------|
------------------|--0----------------|------------------|--3----------------|
------------------|--0----------------|------------------|--3----------------|
------------------|--0----------------|------------------|--3----------------|
------------------|--2----------------|------------------|--1----------------|
------------------|--3----------------|------------------|-------------------|


C Bb6
------------------|--0----------------|----------1--1----3--|
------------------|--1----------------|------------------3--|
------------------|--0----------------|------------------3--|
------------------|--2----------------|------------------3--|
------------------|--3----------------|------------------1--|
------------------|-------------------|---------------------|


Bb6 Bb6Bb6 Bb6Bb6 Bb6Bb6 Bb6C C C C C
|---3----3--3------3--3--|------3--3------3--0--|------0--0------0--0--|
|---3----3--3------3--3--|------3--3------3--1--|------1--1------1--1--|
|*--3----3--3------3--3--|------3--3------3--0--|------0--0------0--0--|
|*--3----3--3------3--3--|------3--3------3--2--|------2--2------2--2--|
|---1----1--1------1--1--|------1--1------1--3--|------3--3------3--3--|
|------------------------|----------------------|----------------------|


C C C C Bb6 Bb6Bb6 Bb6Bb6 Bb6Bb6Bb6 Bb6C
------0--0--0----0--3--|------3--3------3--3--|------3--3--3----3--0--|
------1--1--1----1--3--|------3--3------3--3--|------3--3--3----3--1--|
------0--0--0----0--3--|------3--3------3--3--|------3--3--3----3--0--|
------2--2--2----2--3--|------3--3------3--3--|------3--3--3----3--2--|
------3--3--3----3--1--|------1--1------1--1--|------1--1--1----1--3--|
-----------------------|----------------------|-----------------------|


C C C C C C C Bb6
------0--0------0--0--|------0--0------0--3---||
------1--1------1--1--|------1--1------1--3---||
------0--0------0--0--|------0--0------0--3--*||
------2--2------2--2--|------2--2------2--3--*||
------3--3------3--3--|------3--3------3--1---||
----------------------|-----------------------||

Rory Gallagher Cradle Rock

tablature Gallagher Rory / cradle rock

     
Q Q Q Q Q Q Q Q Q
E||----------------------|--------|-------------------------|
B||----------------------|--------|-------------------------|
G||-----------------0----|--2b----|--2brb----0--------------|
D||--2----0----2---------|--------|---------------2---------|
A||----------------------|--------|-------------------------|
E||----------------------|--------|--------------------0----|


v v v v ^ ^
Q Q Q Q Q H Q Q Q Q Q
----------------------|--1----0--------|--------|-------------------------|
----------------------|--0----2--------|--------|-------------------------|
--1----1----1----1----|--0----2--------|--2b----|--2brb----0--------------|
--2----2----2----2----|--0----2--------|--------|---------------2---------|
--2----2----2----2----|--2----0--------|--------|-------------------------|
--0----0----0----0----|--3----0--------|--------|--------------------0----|


v v v v ^ ^
Q Q Q Q Q H H H
----------------------|--1----0--------|--------------------|
----------------------|--0----2--------|--------------------|
--1----1----1----1----|--0----2--------|--------------------|
--2----2----2----2----|--0----2--------|-----------5--------|
--2----2----2----2----|--2----0--------|--5--------3--------|
--0----0----0----0----|--3----0--------|--3-----------------|


H H H H H H
--------------------|--------------------|--------------------||
--------------------|--------------------|--------------------||
--------------------|--------------------|--------------------||
--3-----------------|-----------5--------|--3-----------------||
--1--------3--------|--5--------3--------|--1--------3--------||
-----------1--------|--3-----------------|-----------1--------||

Leçon de blues avec une jolie blonde

blues lead guitar solo

Leçon de guitare solo

Popa Chubby - I Can't See The Light Of Day


Popa Chubby - I Can't See The Light Of Day
envoyé par popy27. - Regardez la dernière sélection musicale.

Tablature - I Can’t See The Light Of Day - Popa Chubby

I Can’t See The Light Of Day
(Popa Chubby – « The Good, The Bad and The Chubby » )






Riff :


|--5-5--5------------------2LET---3-3-2--------------------|
|--5h7--5------------------3RING---------------------------|
|------—---5/4-2--------2--2-------------------------------|
|----------------4—-2h4----0-------------------------------|
|------------------—---------------------------------------|
|----------—-----------------------------------------------|

|--5-5--5--------------------------------------------------|
|--5h7--5------------------2LET---2h3-2h3-2----------------|
|------—---5/4-2--------2—-2RING---------------------------|
|----------------4—-2-4----2-------------------------------|
|------------------—-------0-------------------------------|
|----------—-----------------------------------------------|

|--5-5--5------------------------------0-------------------|
|--5h7--5--------------------------------------------------|
|------—---5/4-2--------2----------0h1---------------------|
|----------------4—-2h4—--(2)LET---------------------------|
|------------------—-------2-RING--------------------------|
|----------—---------------0---------------3b--0-----------|

|--5-5--5--------------------------------------------------|
|--5h7--5--------------------------------------------------|
|------—---5/4-2--------2—-6/7--7-/-6-/-4---2--------------|
|----------------4—-2h4----6/7--7-/-6-/-4---2--------------|
|------------------—-------4/5--5-/-4-/-2---0--------------|
|----------—-----------------------------------------------|


Solo :


|----------------------------------------------------------|
|-----------------------------5FB-LET-RING-5FB-5-2---------|
|----2----2---2-4B4-2---2-2-2----------------------4B4p2---|
|--4----4---4---------4------------------------------------|
|------------------—---------------------------------------|
|----------—-----------------------------------------------|

|-----------------2-------------------------------5--------|
|-------------------2-5-2----------------------------------|
|----2~~--—--2-4B---------4B-2-4/54p2---2---2-4B----4B-4---|
|--4-------4---------------------------4---4---------------|
|------------------—---------------------------------------|
|----------—-----------------------------------------------|

|------------------------------------0----------4~~-------|
|---------------------------------------------------------|
|--4-2~~-2h4p2-2~~-—-0h1--------------------/4------------|
|-------------4----------2--------------------------------|
|------------------—--------------------------------------|
|----------—-----------------3b~~~0-----------------------|

|--------5---7p5—9p5-7p5-10p5-9p5—-7B7-5------------------|
|------5---5----5---5---5----5---5-------5----------------|
|--2/6----—--------------------------------6--------------|
|--------------------------------------------7----------7-|
|------------------—----------------------------7-4---4---|
|----------—----------------------------------------5-----|
| PM |
|--R^-5—7b--7-5-7-5h7p5--5-5~~-7/--10FB------10FB10--8----|
|--A|-5----------------7----------------------------------|
|--K|-X---—-----------------------------------------------|
|--E|-X---------------------------------------------------|
|------------------—--------------------------------------|
|----------—----------------------------------------------|

|--------------------10-----------------12FB--12-10-9-----|
|--10~~/-----10---13b--13-12-10---10~~--------------------|
|------—--/11--11---------------11------------------------|
|---------------------------------------------------------|
|------------------—--------------------------------------|
|----------—----------------------------------------------|

|--------------/10-9--------------------------------------|
|--10----------------10-----------------------------------|
|-----9~~/--------------9~~-/-----------------------------|
|---------------------------------------------------------|
|------------------—--------------------------------------|
|----------—----------------------------------------------|

|------------12---------16/---------12-14B-14-12----------|
|---------------------------------12----------------------|
|-------4/13—-----13/16-------4/13--------------12h13/----|
|---------------------------------------------------------|
|------------------—--------------------------------------|
|----------—----------------------------------------------|

|------5-7B--7-5-7p5--5-----------------------------------|
|-----5-------------7----0-----10-10-----10-10-----10-10--|
|--2/6----—----------------9/11------9/11------9/11-------|
|---------------------------------------------------------|
|------------------—--------------------------------------|
|----------—----------------------------------------------|

|---------------------------------------------------------|
|------10-10-----10-----10-----10-----10-----10-10--------|
|--9/11----—-9/11---9/11---9/11---9/11---9/11------9/11---|
|---------------------------------------------------------|
|------------------—--------------------------------------|
|----------—----------------------------------------------|

|--------12-11-10----------------------------------5------|
|--10-10----------13FB-13~~-10h13p10---10~~/------5—8p5---|
|------—-----------------------------11------0-7B---------|
|---------------------------------------------------------|
|------------------—--------------------------------------|
|----------—----------------------------------------------|

|--------------------------------5-X-7B-5-7---5-----------|
|----5--------------------------5-----------7---5-5h7-5---|
|--7---7B75---7--5--^--5-----5-6--------------------------|
|-----------7---7---|5---7--------------------------------|
|------------------—|X------------------------------------|
|----------—--------|X------------------------------------|

|--------7B7-5-------------------------------------------|
|-------5-----5------------------------------------------|
|--5-5h6---—---5h6~~------------------2~~--------9--X----|
|---------------------------------2h4------------9—-X----|
|------------------—----------2/4---------0-9h11----X----|
|----------—---------4h5-4h5-----------------------------|
| PM |
|------------------------------------------------5-7B----|
|-------9---10-9--------------------------------5--------|
|-------9—------11-9-9h11/12/11p9-11-9~~/--0-4/6---------|
|--9h11--------------------------------------------------|
|------------------—-------------------------------------|
|----------—---------------------------------------------|

|--7-5---5~~/--0-17-0-0-16-0-0-15-0-0-14-0-0-13-0-0-12---|
|------7-------------------------------------------------|
|------—-------------------------------------------------|
|--------------------------------------------------------|
|------------------—-------------------------------------|
|----------—---------------------------------------------|

|--0-0-11-0-0-10-0-0-9-0-0-8-0-0-7-0-0-6-0-0-17-0-0-0-16-|
|--------------------------------------------------------|
|------—-------------------------------------------------|
|--------------------------------------------------------|
|------------------—-------------------------------------|
|----------—---------------------------------------------|

|--0-0-0-15-0-0-0-14-0-0-0-13-0-0-0-12-0-0-0-11-0-0-0-10-|
|--------------------------------------------------------|
|------—-------------------------------------------------|
|--------------------------------------------------------|
|------------------—-------------------------------------|
|----------—---------------------------------------------|

|--0-0-0-9-0-0-0-8-0-0-0-7-0-0-0-6-0-0-0-5-0-0-0-4/5-5-4-|
|--------------------------------------------------------|
|------—-------------------------------------------------|
|--------------------------------------------------------|
|------------------—-------------------------------------|
|----------—---------------------------------------------|

|--4/5-5-7-7B-7-5-7p5---5/-----5-7FB7-7------------------|
|---------------------7-------5---------5~~/-0-----------|
|------—-------------------2/6---------------0-----------|
|--------------------------------------------0-----7-----|
|------------------—----------------------------7h9------|
|----------—---------------------------------------------|

|--------------------------------------------------------|
|----------------------9----7-----5-LET------------------|
|------—---------------------------RING------------------|
|--9B9-7---7~~/-5—-7/9---/7---4/5-------------2----------|
|--------9----------—------------------------------------|
|----------—-----------------------------0-3b------------|

|--------------------------------------------------------|
|---------------------------2LET—-(7)-(6)-(4)---(2)------|
|------—-----X—-5/4p2-4--2—-2RING--7---6---4-----2-------|
|------2h4p2-X--------------2------7---6---4-----2-------|
|--2h4-------X---------—----0------5---4---2-----0-------|
|----------—---------------------------------------------|


End :


|----------------------------5-----5--------------------|
|--6/7---7-/-6-/-4-/-2------5-----5-5---14—-12/--5/(3)--|
|--6/7---7-/—6-/-4-/-2-----6---6-7----------------------|
|--6/7---7-/-6-/-4-/-2----7-----------------------------|
|--4/5---5-/-4-/-2---------—----------------------------|
|----------—--------------------------------------------|

|-------------------------------------------------------|
|--3/(2)--2-3-2h3p2--------------------^2---------------|
|------—2-----------2--^-2-------------|2---------------|
|----------------------|-2-------------|2---------------|
|------------------—---|-----0-LET-----|0---------------|
|----------—------------------RING----------------------|

Popa Chubby : Hallelujah

Tablature Hallelujah popa Chubby

Hallelujah
(Popa Chubby – « Wild Live »)





G C
|--------------------------------3—3h5p3-------------8------|
|----------------------------------------3-----------8h10p8-|
|--12/------—------------5/----------------5-4--------------|
|--12/---------5-5h7p5---5/---/5----------------------------|
|-------X—5hp7---------7------------------------X-/---------|
|-----------------—-----------------------------------------|
G C Am C
|------------------3------------------0-------------0-------|
|------------------3----------1-------------------1---1-----|
|--9h10-9----—-----4--------0-------2---2-------0-----------|
|------------------5----------------------------------------|
|-----------------------X-3-------0---------X-3-------------|
|-------------X-3—------------------------------------------|
Am FM7 GM7 C
|-----0------------------------3---------------0------------|
|-------1--------1-LET-----------3-----------1---1----------|
|-------—----X---2-RING------4-----4-------0----------------|
|------------X---3--------/5--------------------------------|
|--0-----------------------------------0-3------------------|
|--------------—--------------------------------------------|
G C FM7 GM7 Am FM7
|--------3-LET-------------------------5--5--------(1)------|
|--------0-RING------1-----1----3------5---5--------1-------|
|-----0--0—-------0--0-----2----4---X--5----5---X---2-------|
|-----0-----------2--2-----3----5---X--7--------X---3-------|
|-----X-----------3--3-----------------7--------------------|
|--2b-3--------------------------------X--------------------|
G G#dim Am
|---------------------------0----0--------------------------|
|--------12--------12----1---1---1--------------------------|
|-------—12--------10----2----2--2--------------------------|
|--------12--------13----2-------2--------------------------|
|--X-10--------11--------0-------0--------------------------|
|--------------—--------------------------------------------|


Chorus :


FM7 Am FM7
|--1---1h3p1------------------------0---1-------5---5----5--|
|--1---------1----------1---0h1p0-------1-------------------|
|--2-----—-----2h3p2----2---------2-----2----/5--------5----|
|--3----------------3---2---------------3-------------------|
|-----------------------0-----------------------------------|
|--------------—--------------------------------------------|
C G C G
|-----0------------------0------3-LET-----------------------|
|--1----------------------------3-RING----------------------|
|--0-----—-------------0---0----4---------------------------|
|--2-------------(2)-2----------5---------------------------|
|--3--------------3-------------5---------------------------|
|---------X-3----—------------0-X---------------------------|


Verse 2 :


C / Am / C / Am / C /


FM7 GM7 C G
|---------1-----------7~~-----8h10p8-----------3-----------|
|-------1---1------------------------8---------3-----------|
|-----2--—----2----/7-----------------10p9-----4-----------|
|---3--------------------------------------X---5-----------|
|------------------------------------------X---X-----------|
|--------------—-------------------------------3-----------|

C F G Am FM7 G G#dim
|--8---8------1------3-----0--0-----X---1------------------|
|--8---8------1------3-----1--------1---1----(12)-12—------|
|--9---9---—--2------4-----2--------2---2----(12)-12—------|
|--10--10-----3------5-----2--------3---3-----12-----------|
|--10--10-----3------5-----0--------0---------10-------11--|
|--8---8------X------X-—-----------------------------------|

Am
|---------------0-----0------------------------------------|
|-------12------1-----1------------------------------------|
|----10-10---—--2-----2------------------------------------|
|--12---12------2------------------------------------------|
|-------11------0------------------------------------------|
|--------------—-------------------------------------------|


Solo 1:


|----------------------------------------------------------|
|-----13----15FB-15FB15-13----13---13----------------------|
|--12----12-—--------------14----14-----------5---5---7FB--|
|---------------------------------------5h6h7---7—-(7)-----|
|----------------------------------------------------------|
|--------------—-------------------------------------------|

|-----------------------------------------------5----7-----|
|----------------8-6-5h6p5---5-----------------------------|
|--7FB7p5---5~~--—---------7---7FB7p5-7~~-/-3/5---/7-------|
|---------7------------------------------------------------|
|----------------------------------------------------------|
|--------------—-------------------------------------------|

|------12---12B12--10--8-------7--5--3-/-------------------|
|---------------------------------------------13--15FB-----|
|--/12------12B12—-10--9---5/7-7--5--4-/-0-12--------------|
|----------------------------------------0-----------------|
|----------------------------------------------------------|
|--------------—-------------------------------------------|

|-------------------------------------------8—-10/12-------|
|--15-13-/--------10-----12-----8-10-8-10~~----------10/8--|
|-------—--------------------/9----------------------------|
|----------(8)/10----/12-----------------------------------|
|----------------------------------------------------------|
|--------------—-------------------------------------------|

|----------------------------------------------------------|
|--8h10~~/-----------12-------------------------------10~~-|
|-------—----------------------------------13-16/19-/-X----|
|-----------------12---12------------12-15------------X----|
|----------X-/10-------------X-11-14-----------------------|
|--------------—-------------------------------------------|

|------8---10FB10-8-10----8---5----------------------------|
|----8---8-------------10---8—--5/8---5--------------------|
|--0-----—--------------------------7---5-7-7p5---5---5----|
|--0--------------------------------------------7---7---7--|
|----------------------------------------------------------|
|--------------—-------------------------------------------|

|------------------------5---5--8-/----5---1-1--1--------1-|
|---------------------(5)--5---------------1h3--1--------1-|
|--7-8/7p5-7B~~-5-—-5----------------/5-----------3—0h2----|
|-----------------7----------------------------------------|
|----------------------------------------------------------|
|--------------—-------------------------------------------|

|--------------------------7--------8---8------------------|
|-----------------------------0----------------------------|
|--X------—------------5/7----0—7/9---9--------------------|
|--X---------5-5h7p5----------0-----------X-X-------12h14--|
|--X--3-5/7----------7--------------------X-X-12/14--------|
|--------------—-------------------------------------------|

|----------------------------8--------------------5--------|
|--(12)------------------------------------0---------8FB---|
|---12----12~~/—---------7FB---7p5---5-5~~-0—7FB-----------|
|------14-------0------------------7-----------------------|
|----------------------------------------------------------|
|--------------—---X---------------------------------------|

|--5--------8-12—12p(8)-8—12p8--8-12p8—-12p8---8~~-10/12---|
|-----8/10--------------------10------10----10-------------|
|-------—--------------------------------------------------|
|----------------------------------------------------------|
|----------------------------------------------------------|
|--------------—-------------------------------------------|

|--10/12/10p8h10--10p8/7h8-7/8/7p5-5-7-8-8/10-8------------|
|----------------------------------------------------------|
|-------—---------------------------------------0--2/4-----|
|-----------------------------------------------0----------|
|----------------------------------------------------------|
|--------------—-------------------------------------------|

|--3------3------------------------------------------------|
|----3-----------------------------------------------------|
|------4-—-------------------------------------------------|
|--------------------5-5h7p5-5/------------------------7---|
|------------X-3-5/7---------------------------------7-----|
|--------------—----------------X-1~~---X-3~~--X-5-8-------|

|--------------------------------------5----7--------------|
|----------------------------------------------------------|
|--5---5-7-7B7p5—--5~~-(5~~)-5/(0)—3/5---/7----------------|
|----7-----------7-----------------------------------------|
|----------------------------------------------------5-8---|
|--------------—-------------------------------5-4-7-------|

|-----------------10FB10--8-----------8-/--------5-7-8-7-5-|
|---------------------------10~~-8/10----String------------|
|-------—--------------------------------Noises------------|
|--6~~6-6/7~~-/0-------------------------------------------|
|----------------------------------------------------------|
|--------------—-------------------------------------------|

|--8-5h8p5---5---------------------------------------------|
|----------7---8p5---5-------------------------------------|
|-------—----------7---7-8p7p5---7p5-7p5---5-----------7---|
|------------------------------7---------7—--7-5---5-7---7-|
|------------------------------------------------7---------|
|--------------—-------------------------------------------|


|---------------8----10FB-10p8----8--8--8------------------|
|-----------/10---10-----------10----8--8------------(5)---|
|--5-----—--------------------------------9/7-5-7p5---5----|
|----7~~-/------------------------------------------7------|
|----------------------------------------------------------|
|--------------—-------------------------------------------|

|---------3------3--------3----3-------------------3-^-Let-|
|--------------------------------------------------3-|-Ring|
|--X-----—-----------0----------------------------(4)|-----|
|--X—3/5------5------0-/5----X----------5-5h7p5-7----|-----|
|--X------------------------------3-5/7--------------------|
|--------------—-------------------------------------------|


Solo 2 :


|-----5---5~~---5--0--/-12-12-12-12-12-12-12-12-Let----------|
|------------------0--/-13-13-13-13-13-13-13-13-Ring---------|
|--/5---5--—--5----------------------------------------------|
|------------------------------------------------------------|
|------------------------------------------------------------|
|---------------------------------—--------------------------|

|--1-Let-------1----1-Let--1---------8----8---------3---3----|
|--1-Ring-----(1)---1-Ring-1—(5-0----8h10-8---------3h5-3----|
|--2-----—-2h3----3-2------2------0)--------10-9~~/----------|
|--2-----------------------2---------------------------------|
|------------------------------------------------------------|
|---------------------------------—--------------------------|

|-----------------8-8----8-------8-8----8------8-8----8------|
|----3/8-----8/10-----10----8/10-----10----8/10----10--------|
|--5-----—0--------------------------------------------------|
|---------0--------------------------------------------------|
|------------------------------------------------------------|
|---------------------------------—--------------------------|

|-------8-8----8--8-10B-8-10---8-----------------------------|
|--8/10-----10--------------10---8-10---8--------------------|
|-------—-----------------------------9---7-9-5-7-7B7p5---5--|
|-------------------------------------------------------7----|
|------------------------------------------------------------|
|---------------------------------—--------------------------|

|------------------------------------------------------------|
|-------------------------------------8FB8--6-5-6—5h6p5---5--|
|------5~~-—----5-5---5------5-5---5--------------------7----|
|--7-7------5/7-----7----5/7-----7---------------------------|
|------------------------------------------------------------|
|---------------------------------—--------------------------|

|-------------------8----------------------8-8-10/12---------|
|-----------------------------------0-8/10-------------------|
|--7-7FB7p5---7—7FB---7FB7-5-7~~-/--0------------------------|
|-----------7-----------------------0------------------------|
|------------------------------------------------------------|
|---------------------------------—--------------------------|


|--12/10p8h10-8h10p8----8------------------------------------|
|--------------------10--------------------------------------|
|-------—-----------------9/7-7p5-7—-5h7p5-------------5-7FB-|
|------------------------------------------7-------5-7-------|
|--------------------------------------------5---------------|
|---------------------------------—------------5-7-----------|
| PM |
|-----5------5-8-5-5h8p5-5-----------------------10FB--8-----|
|--5-(5)-5h8------------8---5--5-------------------------10~~|
|-------—-----------------7--7—-7FB7p5---7-5-----------------|
|--------------------------------------7-----5-5-------------|
|------------------------------------------------------------|
|---------------------------------—--------------------------|

|----------------------------0-------3-Let--------0----------|
|------8-10-8/10-8-------------1-----3-Ring-------1----------|
|--8/9-----—---------------0---------0------------0----------|
|------------------------2-----------0------------2----------|
|--------------------X-3-------------X---------X--3----------|
|---------------------------------—X-3-----------------------|

|------------0-----------------------------------------------|
|------------1--------1--------------------------------------|
|-------—----0--------0--------------------------------------|
|--3-2-------2--------2--------------------------------------|
|------5b----3--------3--------------------------------------|
|--------------------------------------------------—---------|

J. J. Cale: Cocaine

How To Play Cocaine




Paroles

If you wanna hang out youve got to take her out; cocaine.
If you wanna get down, down on the ground; cocaine.
She don't lie, she don't lie, she don't lie; cocaine.

When your day is done and you wanna run; cocaine.
If you got bad news, you wanna kick them blues; cocaine.
She don't lie, she don't lie, she don't lie; cocaine.

If your thing is gone and you wanna ride on; cocaine.
Don't forget this fact, you can't get it back; cocaine.
She don't lie, she don't lie, she don't lie; cocaine.

She don't lie, she don't lie, she don't lie; cocaine.

débutant improvisation blues

blues pour débutants : le shuffle

le pénitencier - johnny hallyday - tablature.



Paroles

Les portes du pénitencier
Bientôt vont se fermer
Et c'est là que je finirai ma vie
Comm'd'autres gars l'ont finie
Pour moi ma mère a donné
Sa robe de mariée
Peux-tu jamais me pardonner
Je t'ai trop fait pleurer
Le soleil n'est pas fait pour nous
C'est la nuit qu'on peut tricher
Toi qui ce soir a tout perdu
Demain tu peux gagner .

O mères, écoutez-moi
Ne laissez jamais vos garçons
Seuls la nuit traîner dans les rues
Ils iront tout droit en prison
Toi la fille qui m'a aimé
Je t'ai trop fait pleurer
Les larmes de honte que tu as versées
Il faut les oublier
Les portes du pénitencier
Bientôt vont se fermer
Et c'est là que je finirai ma vie
Comm'd'autres gars l'ont finie


Voici la tablature du Pénitencier





INTRO:
Lam Do Ré
E-----------0--------|-----------0--------|-----------2--------|
B--------1-----1-----|--------1-----1-----|--------3-----3-----|
G-----2-----------2--|-----0-----------0--|-----2-----------2--| X2
D--------------------|--------------------|--0-----------------|
A--0-----------------|--3-----------------|--------------------|
E--------------------|--------------------|--------------------|


COUPLET:
Lam Do Ré
E-----------0--------|-----------0--------|-----------2--------|
B--------1-----1-----|--------1-----1-----|--------3-----3-----|
G-----2-----------2--|-----0-----------0--|-----2-----------2--| X2
D--------------------|--------------------|--0-----------------|
A--0-----------------|--3-----------------|--------------------|
E--------------------|--------------------|--------------------|

Lam Do Ré Fa
E-----------0--------|-----------0--------|-----------2--------|-----------2--------|
B--------1-----1-----|--------1-----1-----|--------3-----3-----|--------1-----1-----|
G-----2-----------2--|-----0-----------0--|-----2-----------2--|-----2-----------2--| X2
D--------------------|--------------------|--0-----------------|--------------------|
A--0-----------------|--3-----------------|--------------------|--------------------|
E--------------------|--------------------|--------------------|--1-----------------|

Lam Mi Lam Mi
E-----------0--------|-----------0--------|-----------0--------|-----------0--------|
B--------1-----1-----|--------0-----0-----|--------1-----1-----|--------0-----0-----|
G-----2-----------2--|-----1-----------1--|-----2-----------2--|-----1-----------1--| X2
D--------------------|--------------------|--------------------|--------------------|
A--0-----------------|--------------------|--0-----------------|--------------------|
E--------------------|--0-----------------|--------------------|--0-----------------|

Lam Do Ré
E-----------0--------|-----------0--------|-----------2--------|
B--------1-----1-----|--------1-----1-----|--------3-----3-----|
G-----2-----------2--|-----0-----------0--|-----2-----------2--| X2
D--------------------|--------------------|--0-----------------|
A--0-----------------|--3-----------------|--------------------|
E--------------------|--------------------|--------------------|

Lam Do Ré Fa
E-----------0--------|-----------0--------|-----------2--------|-----------2--------|
B--------1-----1-----|--------1-----1-----|--------3-----3-----|--------1-----1-----|
G-----2-----------2--|-----0-----------0--|-----2-----------2--|-----2-----------2--| X2
D--------------------|--------------------|--0-----------------|--------------------|
A--0-----------------|--3-----------------|--------------------|--------------------|
E--------------------|--------------------|--------------------|--1-----------------|

Lam Mi Lam Mi
E-----------0--------|-----------0--------|-----------0--------|-----------0--------|
B--------1-----1-----|--------0-----0-----|--------1-----1-----|--------0-----0-----|
G-----2-----------2--|-----1-----------1--|-----2-----------2--|-----1-----------1--| X2
D--------------------|--------------------|--------------------|--------------------|
A--0-----------------|--------------------|--0-----------------|--------------------|
E--------------------|--0-----------------|--------------------|--0-----------------|


.

Messages les plus consultés