Blues guitar Lesson - boom! boom! boom!

Boom! Boom! - John Lee Hooker

John Lee Hooker - Boom Boom

Tablature Hooker John Lee / boom boom

--------------------------------0--0--3--3--0--0--0--0---------------------------0--0--3--3--0--0--0--0--
-------3------------------------0--0--0--0--2--2--0--0---------------------------0--0--0--0--2--2--0--0--
---2/4------4/2p0---------------1--1--0--0--2--2--1--1------0--3p2--0------------1--1--0--0--2--2--1--1--
---------------------2--0---2---2--2--0--0--2--2--2--2----2------------2--0--2---2--2--0--0--2--2--2--2--
--------------------------------2--2--2--2--0--0--2--2---------------------------2--2--2--2--0--0--2--2--
--------------------------------0--0--3--3--------0--0---------------------------0--0--3--3--------0--0--


-------------------------------0--0--0--0--2--2--0--0----------------------------0--0--3--3--0--0--0--0--
--------3----------------------2--2--1--1--3--3--2--2----------------------------0--0--0--0--2--2--0--0--
---2/4-----4/2p0-------0---2---2--2--0--0--2--2--2--2------0--3p2--0-------------1--1--0--0--2--2--1--1--
--------------------2----------2--2--2--2--0--0--2--2----2------------2--0--2----2--2--0--0--2--2--2--2--
-------------------------------0--0--3--3--------0--0----------------------------2--2--2--2--0--0--2--2--
---------------------------------------------------------------------------------0--0--3--2--------0--0--



------------------------------2--2--2--2--0--0--0--0-----------------------------0--0--3--3--0--0--0--0--
--------3---------------------0--0--3--3--0--0--2--2-----------------------------0--0--0--0--2--2--0--0--
---2/4-----4/2p0--------------2--2--2--2--1--1--2--2----------------0-------2----1--1--0--0--2--2--1--1--
-------------------2--0-------1--1--0--0--2--2--2--2--------0---2-------2--------2--2--0--0--2--2--2--2--
--------------------------2---2--2--------2--2--0--0----2------------------------2--2--2--2--0--0--2--2--
------------------------------------------0--0-----------------------------------0--0--3--3--------0--0--

Play Slide Guitar

Souped Up Ford - Rory Gallagher

Tablature Gallagher Rory / Souped Up Ford

E||--------------------------------------|---------------------------------|
B||--1--1-----1--------1--1-----1--------|--1--------1---------------------|
G||--------0-----3--0--------0-----3--0--|---------------------------------|
D||--------------------------------------|-----3--2-----3--2--0-----2------|
A||--------------------------------------|-----------------------3---------|
E||--------------------------------------|---------------------------------|



--------------------------------------|------------------------------------|
--1--------1--------------------------|-------------------------1--1-------|
-----3--0-----------0--------0--------|-------------------------0--0----0--|
--------------3--2-----2--------2-----|-------------------------2--2-------|
--------------------------3--------3--|--3--1-----1-----1--3----3--3-------|
--------------------------------------|--------3-----3---------------------|



--------------------------------------|----------------------------------|
-----------------1-----------1--------|----------------------------------|
--------------------3--0--0-----3--0--|----------------------------------|
--2--------2--------------------------|--3--5--5--5--3--2--3-----5-3-2-3-|
-----3--3-----3-----------------------|----------------------------------|
--------------------------------------|----------------------------------|


C
--------------------------------|-------------------|--0----------------|
--------------------------------|-------------------|--1----------------|
--0-----------------------------|-------------------|--0----------------|
-----2--------------------------|-------------------|--2----------------|
--------3--3--------3--1--------|-------------------|--3----------------|
--------------------------3--1--|--3----------------|-------------------|


G Bb
------------------|--3----------------|------------------|--1----------------|
------------------|--0----------------|------------------|--3----------------|
------------------|--0----------------|------------------|--3----------------|
------------------|--0----------------|------------------|--3----------------|
------------------|--2----------------|------------------|--1----------------|
------------------|--3----------------|------------------|-------------------|


C Bb6
------------------|--0----------------|----------1--1----3--|
------------------|--1----------------|------------------3--|
------------------|--0----------------|------------------3--|
------------------|--2----------------|------------------3--|
------------------|--3----------------|------------------1--|
------------------|-------------------|---------------------|


Bb6 Bb6Bb6 Bb6Bb6 Bb6Bb6 Bb6C C C C C
|---3----3--3------3--3--|------3--3------3--0--|------0--0------0--0--|
|---3----3--3------3--3--|------3--3------3--1--|------1--1------1--1--|
|*--3----3--3------3--3--|------3--3------3--0--|------0--0------0--0--|
|*--3----3--3------3--3--|------3--3------3--2--|------2--2------2--2--|
|---1----1--1------1--1--|------1--1------1--3--|------3--3------3--3--|
|------------------------|----------------------|----------------------|


C C C C Bb6 Bb6Bb6 Bb6Bb6 Bb6Bb6Bb6 Bb6C
------0--0--0----0--3--|------3--3------3--3--|------3--3--3----3--0--|
------1--1--1----1--3--|------3--3------3--3--|------3--3--3----3--1--|
------0--0--0----0--3--|------3--3------3--3--|------3--3--3----3--0--|
------2--2--2----2--3--|------3--3------3--3--|------3--3--3----3--2--|
------3--3--3----3--1--|------1--1------1--1--|------1--1--1----1--3--|
-----------------------|----------------------|-----------------------|


C C C C C C C Bb6
------0--0------0--0--|------0--0------0--3---||
------1--1------1--1--|------1--1------1--3---||
------0--0------0--0--|------0--0------0--3--*||
------2--2------2--2--|------2--2------2--3--*||
------3--3------3--3--|------3--3------3--1---||
----------------------|-----------------------||

Rory Gallagher Cradle Rock

tablature Gallagher Rory / cradle rock

     
Q Q Q Q Q Q Q Q Q
E||----------------------|--------|-------------------------|
B||----------------------|--------|-------------------------|
G||-----------------0----|--2b----|--2brb----0--------------|
D||--2----0----2---------|--------|---------------2---------|
A||----------------------|--------|-------------------------|
E||----------------------|--------|--------------------0----|


v v v v ^ ^
Q Q Q Q Q H Q Q Q Q Q
----------------------|--1----0--------|--------|-------------------------|
----------------------|--0----2--------|--------|-------------------------|
--1----1----1----1----|--0----2--------|--2b----|--2brb----0--------------|
--2----2----2----2----|--0----2--------|--------|---------------2---------|
--2----2----2----2----|--2----0--------|--------|-------------------------|
--0----0----0----0----|--3----0--------|--------|--------------------0----|


v v v v ^ ^
Q Q Q Q Q H H H
----------------------|--1----0--------|--------------------|
----------------------|--0----2--------|--------------------|
--1----1----1----1----|--0----2--------|--------------------|
--2----2----2----2----|--0----2--------|-----------5--------|
--2----2----2----2----|--2----0--------|--5--------3--------|
--0----0----0----0----|--3----0--------|--3-----------------|


H H H H H H
--------------------|--------------------|--------------------||
--------------------|--------------------|--------------------||
--------------------|--------------------|--------------------||
--3-----------------|-----------5--------|--3-----------------||
--1--------3--------|--5--------3--------|--1--------3--------||
-----------1--------|--3-----------------|-----------1--------||

Leçon de blues avec une jolie blonde

blues lead guitar solo

Leçon de guitare solo

Popa Chubby - I Can't See The Light Of Day


Popa Chubby - I Can't See The Light Of Day
envoyé par popy27. - Regardez la dernière sélection musicale.

Tablature - I Can’t See The Light Of Day - Popa Chubby

I Can’t See The Light Of Day
(Popa Chubby – « The Good, The Bad and The Chubby » )






Riff :


|--5-5--5------------------2LET---3-3-2--------------------|
|--5h7--5------------------3RING---------------------------|
|------—---5/4-2--------2--2-------------------------------|
|----------------4—-2h4----0-------------------------------|
|------------------—---------------------------------------|
|----------—-----------------------------------------------|

|--5-5--5--------------------------------------------------|
|--5h7--5------------------2LET---2h3-2h3-2----------------|
|------—---5/4-2--------2—-2RING---------------------------|
|----------------4—-2-4----2-------------------------------|
|------------------—-------0-------------------------------|
|----------—-----------------------------------------------|

|--5-5--5------------------------------0-------------------|
|--5h7--5--------------------------------------------------|
|------—---5/4-2--------2----------0h1---------------------|
|----------------4—-2h4—--(2)LET---------------------------|
|------------------—-------2-RING--------------------------|
|----------—---------------0---------------3b--0-----------|

|--5-5--5--------------------------------------------------|
|--5h7--5--------------------------------------------------|
|------—---5/4-2--------2—-6/7--7-/-6-/-4---2--------------|
|----------------4—-2h4----6/7--7-/-6-/-4---2--------------|
|------------------—-------4/5--5-/-4-/-2---0--------------|
|----------—-----------------------------------------------|


Solo :


|----------------------------------------------------------|
|-----------------------------5FB-LET-RING-5FB-5-2---------|
|----2----2---2-4B4-2---2-2-2----------------------4B4p2---|
|--4----4---4---------4------------------------------------|
|------------------—---------------------------------------|
|----------—-----------------------------------------------|

|-----------------2-------------------------------5--------|
|-------------------2-5-2----------------------------------|
|----2~~--—--2-4B---------4B-2-4/54p2---2---2-4B----4B-4---|
|--4-------4---------------------------4---4---------------|
|------------------—---------------------------------------|
|----------—-----------------------------------------------|

|------------------------------------0----------4~~-------|
|---------------------------------------------------------|
|--4-2~~-2h4p2-2~~-—-0h1--------------------/4------------|
|-------------4----------2--------------------------------|
|------------------—--------------------------------------|
|----------—-----------------3b~~~0-----------------------|

|--------5---7p5—9p5-7p5-10p5-9p5—-7B7-5------------------|
|------5---5----5---5---5----5---5-------5----------------|
|--2/6----—--------------------------------6--------------|
|--------------------------------------------7----------7-|
|------------------—----------------------------7-4---4---|
|----------—----------------------------------------5-----|
| PM |
|--R^-5—7b--7-5-7-5h7p5--5-5~~-7/--10FB------10FB10--8----|
|--A|-5----------------7----------------------------------|
|--K|-X---—-----------------------------------------------|
|--E|-X---------------------------------------------------|
|------------------—--------------------------------------|
|----------—----------------------------------------------|

|--------------------10-----------------12FB--12-10-9-----|
|--10~~/-----10---13b--13-12-10---10~~--------------------|
|------—--/11--11---------------11------------------------|
|---------------------------------------------------------|
|------------------—--------------------------------------|
|----------—----------------------------------------------|

|--------------/10-9--------------------------------------|
|--10----------------10-----------------------------------|
|-----9~~/--------------9~~-/-----------------------------|
|---------------------------------------------------------|
|------------------—--------------------------------------|
|----------—----------------------------------------------|

|------------12---------16/---------12-14B-14-12----------|
|---------------------------------12----------------------|
|-------4/13—-----13/16-------4/13--------------12h13/----|
|---------------------------------------------------------|
|------------------—--------------------------------------|
|----------—----------------------------------------------|

|------5-7B--7-5-7p5--5-----------------------------------|
|-----5-------------7----0-----10-10-----10-10-----10-10--|
|--2/6----—----------------9/11------9/11------9/11-------|
|---------------------------------------------------------|
|------------------—--------------------------------------|
|----------—----------------------------------------------|

|---------------------------------------------------------|
|------10-10-----10-----10-----10-----10-----10-10--------|
|--9/11----—-9/11---9/11---9/11---9/11---9/11------9/11---|
|---------------------------------------------------------|
|------------------—--------------------------------------|
|----------—----------------------------------------------|

|--------12-11-10----------------------------------5------|
|--10-10----------13FB-13~~-10h13p10---10~~/------5—8p5---|
|------—-----------------------------11------0-7B---------|
|---------------------------------------------------------|
|------------------—--------------------------------------|
|----------—----------------------------------------------|

|--------------------------------5-X-7B-5-7---5-----------|
|----5--------------------------5-----------7---5-5h7-5---|
|--7---7B75---7--5--^--5-----5-6--------------------------|
|-----------7---7---|5---7--------------------------------|
|------------------—|X------------------------------------|
|----------—--------|X------------------------------------|

|--------7B7-5-------------------------------------------|
|-------5-----5------------------------------------------|
|--5-5h6---—---5h6~~------------------2~~--------9--X----|
|---------------------------------2h4------------9—-X----|
|------------------—----------2/4---------0-9h11----X----|
|----------—---------4h5-4h5-----------------------------|
| PM |
|------------------------------------------------5-7B----|
|-------9---10-9--------------------------------5--------|
|-------9—------11-9-9h11/12/11p9-11-9~~/--0-4/6---------|
|--9h11--------------------------------------------------|
|------------------—-------------------------------------|
|----------—---------------------------------------------|

|--7-5---5~~/--0-17-0-0-16-0-0-15-0-0-14-0-0-13-0-0-12---|
|------7-------------------------------------------------|
|------—-------------------------------------------------|
|--------------------------------------------------------|
|------------------—-------------------------------------|
|----------—---------------------------------------------|

|--0-0-11-0-0-10-0-0-9-0-0-8-0-0-7-0-0-6-0-0-17-0-0-0-16-|
|--------------------------------------------------------|
|------—-------------------------------------------------|
|--------------------------------------------------------|
|------------------—-------------------------------------|
|----------—---------------------------------------------|

|--0-0-0-15-0-0-0-14-0-0-0-13-0-0-0-12-0-0-0-11-0-0-0-10-|
|--------------------------------------------------------|
|------—-------------------------------------------------|
|--------------------------------------------------------|
|------------------—-------------------------------------|
|----------—---------------------------------------------|

|--0-0-0-9-0-0-0-8-0-0-0-7-0-0-0-6-0-0-0-5-0-0-0-4/5-5-4-|
|--------------------------------------------------------|
|------—-------------------------------------------------|
|--------------------------------------------------------|
|------------------—-------------------------------------|
|----------—---------------------------------------------|

|--4/5-5-7-7B-7-5-7p5---5/-----5-7FB7-7------------------|
|---------------------7-------5---------5~~/-0-----------|
|------—-------------------2/6---------------0-----------|
|--------------------------------------------0-----7-----|
|------------------—----------------------------7h9------|
|----------—---------------------------------------------|

|--------------------------------------------------------|
|----------------------9----7-----5-LET------------------|
|------—---------------------------RING------------------|
|--9B9-7---7~~/-5—-7/9---/7---4/5-------------2----------|
|--------9----------—------------------------------------|
|----------—-----------------------------0-3b------------|

|--------------------------------------------------------|
|---------------------------2LET—-(7)-(6)-(4)---(2)------|
|------—-----X—-5/4p2-4--2—-2RING--7---6---4-----2-------|
|------2h4p2-X--------------2------7---6---4-----2-------|
|--2h4-------X---------—----0------5---4---2-----0-------|
|----------—---------------------------------------------|


End :


|----------------------------5-----5--------------------|
|--6/7---7-/-6-/-4-/-2------5-----5-5---14—-12/--5/(3)--|
|--6/7---7-/—6-/-4-/-2-----6---6-7----------------------|
|--6/7---7-/-6-/-4-/-2----7-----------------------------|
|--4/5---5-/-4-/-2---------—----------------------------|
|----------—--------------------------------------------|

|-------------------------------------------------------|
|--3/(2)--2-3-2h3p2--------------------^2---------------|
|------—2-----------2--^-2-------------|2---------------|
|----------------------|-2-------------|2---------------|
|------------------—---|-----0-LET-----|0---------------|
|----------—------------------RING----------------------|

Popa Chubby : Hallelujah

Tablature Hallelujah popa Chubby

Hallelujah
(Popa Chubby – « Wild Live »)





G C
|--------------------------------3—3h5p3-------------8------|
|----------------------------------------3-----------8h10p8-|
|--12/------—------------5/----------------5-4--------------|
|--12/---------5-5h7p5---5/---/5----------------------------|
|-------X—5hp7---------7------------------------X-/---------|
|-----------------—-----------------------------------------|
G C Am C
|------------------3------------------0-------------0-------|
|------------------3----------1-------------------1---1-----|
|--9h10-9----—-----4--------0-------2---2-------0-----------|
|------------------5----------------------------------------|
|-----------------------X-3-------0---------X-3-------------|
|-------------X-3—------------------------------------------|
Am FM7 GM7 C
|-----0------------------------3---------------0------------|
|-------1--------1-LET-----------3-----------1---1----------|
|-------—----X---2-RING------4-----4-------0----------------|
|------------X---3--------/5--------------------------------|
|--0-----------------------------------0-3------------------|
|--------------—--------------------------------------------|
G C FM7 GM7 Am FM7
|--------3-LET-------------------------5--5--------(1)------|
|--------0-RING------1-----1----3------5---5--------1-------|
|-----0--0—-------0--0-----2----4---X--5----5---X---2-------|
|-----0-----------2--2-----3----5---X--7--------X---3-------|
|-----X-----------3--3-----------------7--------------------|
|--2b-3--------------------------------X--------------------|
G G#dim Am
|---------------------------0----0--------------------------|
|--------12--------12----1---1---1--------------------------|
|-------—12--------10----2----2--2--------------------------|
|--------12--------13----2-------2--------------------------|
|--X-10--------11--------0-------0--------------------------|
|--------------—--------------------------------------------|


Chorus :


FM7 Am FM7
|--1---1h3p1------------------------0---1-------5---5----5--|
|--1---------1----------1---0h1p0-------1-------------------|
|--2-----—-----2h3p2----2---------2-----2----/5--------5----|
|--3----------------3---2---------------3-------------------|
|-----------------------0-----------------------------------|
|--------------—--------------------------------------------|
C G C G
|-----0------------------0------3-LET-----------------------|
|--1----------------------------3-RING----------------------|
|--0-----—-------------0---0----4---------------------------|
|--2-------------(2)-2----------5---------------------------|
|--3--------------3-------------5---------------------------|
|---------X-3----—------------0-X---------------------------|


Verse 2 :


C / Am / C / Am / C /


FM7 GM7 C G
|---------1-----------7~~-----8h10p8-----------3-----------|
|-------1---1------------------------8---------3-----------|
|-----2--—----2----/7-----------------10p9-----4-----------|
|---3--------------------------------------X---5-----------|
|------------------------------------------X---X-----------|
|--------------—-------------------------------3-----------|

C F G Am FM7 G G#dim
|--8---8------1------3-----0--0-----X---1------------------|
|--8---8------1------3-----1--------1---1----(12)-12—------|
|--9---9---—--2------4-----2--------2---2----(12)-12—------|
|--10--10-----3------5-----2--------3---3-----12-----------|
|--10--10-----3------5-----0--------0---------10-------11--|
|--8---8------X------X-—-----------------------------------|

Am
|---------------0-----0------------------------------------|
|-------12------1-----1------------------------------------|
|----10-10---—--2-----2------------------------------------|
|--12---12------2------------------------------------------|
|-------11------0------------------------------------------|
|--------------—-------------------------------------------|


Solo 1:


|----------------------------------------------------------|
|-----13----15FB-15FB15-13----13---13----------------------|
|--12----12-—--------------14----14-----------5---5---7FB--|
|---------------------------------------5h6h7---7—-(7)-----|
|----------------------------------------------------------|
|--------------—-------------------------------------------|

|-----------------------------------------------5----7-----|
|----------------8-6-5h6p5---5-----------------------------|
|--7FB7p5---5~~--—---------7---7FB7p5-7~~-/-3/5---/7-------|
|---------7------------------------------------------------|
|----------------------------------------------------------|
|--------------—-------------------------------------------|

|------12---12B12--10--8-------7--5--3-/-------------------|
|---------------------------------------------13--15FB-----|
|--/12------12B12—-10--9---5/7-7--5--4-/-0-12--------------|
|----------------------------------------0-----------------|
|----------------------------------------------------------|
|--------------—-------------------------------------------|

|-------------------------------------------8—-10/12-------|
|--15-13-/--------10-----12-----8-10-8-10~~----------10/8--|
|-------—--------------------/9----------------------------|
|----------(8)/10----/12-----------------------------------|
|----------------------------------------------------------|
|--------------—-------------------------------------------|

|----------------------------------------------------------|
|--8h10~~/-----------12-------------------------------10~~-|
|-------—----------------------------------13-16/19-/-X----|
|-----------------12---12------------12-15------------X----|
|----------X-/10-------------X-11-14-----------------------|
|--------------—-------------------------------------------|

|------8---10FB10-8-10----8---5----------------------------|
|----8---8-------------10---8—--5/8---5--------------------|
|--0-----—--------------------------7---5-7-7p5---5---5----|
|--0--------------------------------------------7---7---7--|
|----------------------------------------------------------|
|--------------—-------------------------------------------|

|------------------------5---5--8-/----5---1-1--1--------1-|
|---------------------(5)--5---------------1h3--1--------1-|
|--7-8/7p5-7B~~-5-—-5----------------/5-----------3—0h2----|
|-----------------7----------------------------------------|
|----------------------------------------------------------|
|--------------—-------------------------------------------|

|--------------------------7--------8---8------------------|
|-----------------------------0----------------------------|
|--X------—------------5/7----0—7/9---9--------------------|
|--X---------5-5h7p5----------0-----------X-X-------12h14--|
|--X--3-5/7----------7--------------------X-X-12/14--------|
|--------------—-------------------------------------------|

|----------------------------8--------------------5--------|
|--(12)------------------------------------0---------8FB---|
|---12----12~~/—---------7FB---7p5---5-5~~-0—7FB-----------|
|------14-------0------------------7-----------------------|
|----------------------------------------------------------|
|--------------—---X---------------------------------------|

|--5--------8-12—12p(8)-8—12p8--8-12p8—-12p8---8~~-10/12---|
|-----8/10--------------------10------10----10-------------|
|-------—--------------------------------------------------|
|----------------------------------------------------------|
|----------------------------------------------------------|
|--------------—-------------------------------------------|

|--10/12/10p8h10--10p8/7h8-7/8/7p5-5-7-8-8/10-8------------|
|----------------------------------------------------------|
|-------—---------------------------------------0--2/4-----|
|-----------------------------------------------0----------|
|----------------------------------------------------------|
|--------------—-------------------------------------------|

|--3------3------------------------------------------------|
|----3-----------------------------------------------------|
|------4-—-------------------------------------------------|
|--------------------5-5h7p5-5/------------------------7---|
|------------X-3-5/7---------------------------------7-----|
|--------------—----------------X-1~~---X-3~~--X-5-8-------|

|--------------------------------------5----7--------------|
|----------------------------------------------------------|
|--5---5-7-7B7p5—--5~~-(5~~)-5/(0)—3/5---/7----------------|
|----7-----------7-----------------------------------------|
|----------------------------------------------------5-8---|
|--------------—-------------------------------5-4-7-------|

|-----------------10FB10--8-----------8-/--------5-7-8-7-5-|
|---------------------------10~~-8/10----String------------|
|-------—--------------------------------Noises------------|
|--6~~6-6/7~~-/0-------------------------------------------|
|----------------------------------------------------------|
|--------------—-------------------------------------------|

|--8-5h8p5---5---------------------------------------------|
|----------7---8p5---5-------------------------------------|
|-------—----------7---7-8p7p5---7p5-7p5---5-----------7---|
|------------------------------7---------7—--7-5---5-7---7-|
|------------------------------------------------7---------|
|--------------—-------------------------------------------|


|---------------8----10FB-10p8----8--8--8------------------|
|-----------/10---10-----------10----8--8------------(5)---|
|--5-----—--------------------------------9/7-5-7p5---5----|
|----7~~-/------------------------------------------7------|
|----------------------------------------------------------|
|--------------—-------------------------------------------|

|---------3------3--------3----3-------------------3-^-Let-|
|--------------------------------------------------3-|-Ring|
|--X-----—-----------0----------------------------(4)|-----|
|--X—3/5------5------0-/5----X----------5-5h7p5-7----|-----|
|--X------------------------------3-5/7--------------------|
|--------------—-------------------------------------------|


Solo 2 :


|-----5---5~~---5--0--/-12-12-12-12-12-12-12-12-Let----------|
|------------------0--/-13-13-13-13-13-13-13-13-Ring---------|
|--/5---5--—--5----------------------------------------------|
|------------------------------------------------------------|
|------------------------------------------------------------|
|---------------------------------—--------------------------|

|--1-Let-------1----1-Let--1---------8----8---------3---3----|
|--1-Ring-----(1)---1-Ring-1—(5-0----8h10-8---------3h5-3----|
|--2-----—-2h3----3-2------2------0)--------10-9~~/----------|
|--2-----------------------2---------------------------------|
|------------------------------------------------------------|
|---------------------------------—--------------------------|

|-----------------8-8----8-------8-8----8------8-8----8------|
|----3/8-----8/10-----10----8/10-----10----8/10----10--------|
|--5-----—0--------------------------------------------------|
|---------0--------------------------------------------------|
|------------------------------------------------------------|
|---------------------------------—--------------------------|

|-------8-8----8--8-10B-8-10---8-----------------------------|
|--8/10-----10--------------10---8-10---8--------------------|
|-------—-----------------------------9---7-9-5-7-7B7p5---5--|
|-------------------------------------------------------7----|
|------------------------------------------------------------|
|---------------------------------—--------------------------|

|------------------------------------------------------------|
|-------------------------------------8FB8--6-5-6—5h6p5---5--|
|------5~~-—----5-5---5------5-5---5--------------------7----|
|--7-7------5/7-----7----5/7-----7---------------------------|
|------------------------------------------------------------|
|---------------------------------—--------------------------|

|-------------------8----------------------8-8-10/12---------|
|-----------------------------------0-8/10-------------------|
|--7-7FB7p5---7—7FB---7FB7-5-7~~-/--0------------------------|
|-----------7-----------------------0------------------------|
|------------------------------------------------------------|
|---------------------------------—--------------------------|


|--12/10p8h10-8h10p8----8------------------------------------|
|--------------------10--------------------------------------|
|-------—-----------------9/7-7p5-7—-5h7p5-------------5-7FB-|
|------------------------------------------7-------5-7-------|
|--------------------------------------------5---------------|
|---------------------------------—------------5-7-----------|
| PM |
|-----5------5-8-5-5h8p5-5-----------------------10FB--8-----|
|--5-(5)-5h8------------8---5--5-------------------------10~~|
|-------—-----------------7--7—-7FB7p5---7-5-----------------|
|--------------------------------------7-----5-5-------------|
|------------------------------------------------------------|
|---------------------------------—--------------------------|

|----------------------------0-------3-Let--------0----------|
|------8-10-8/10-8-------------1-----3-Ring-------1----------|
|--8/9-----—---------------0---------0------------0----------|
|------------------------2-----------0------------2----------|
|--------------------X-3-------------X---------X--3----------|
|---------------------------------—X-3-----------------------|

|------------0-----------------------------------------------|
|------------1--------1--------------------------------------|
|-------—----0--------0--------------------------------------|
|--3-2-------2--------2--------------------------------------|
|------5b----3--------3--------------------------------------|
|--------------------------------------------------—---------|

J. J. Cale: Cocaine

How To Play Cocaine




Paroles

If you wanna hang out youve got to take her out; cocaine.
If you wanna get down, down on the ground; cocaine.
She don't lie, she don't lie, she don't lie; cocaine.

When your day is done and you wanna run; cocaine.
If you got bad news, you wanna kick them blues; cocaine.
She don't lie, she don't lie, she don't lie; cocaine.

If your thing is gone and you wanna ride on; cocaine.
Don't forget this fact, you can't get it back; cocaine.
She don't lie, she don't lie, she don't lie; cocaine.

She don't lie, she don't lie, she don't lie; cocaine.

débutant improvisation blues

blues pour débutants : le shuffle

le pénitencier - johnny hallyday - tablature.



Paroles

Les portes du pénitencier
Bientôt vont se fermer
Et c'est là que je finirai ma vie
Comm'd'autres gars l'ont finie
Pour moi ma mère a donné
Sa robe de mariée
Peux-tu jamais me pardonner
Je t'ai trop fait pleurer
Le soleil n'est pas fait pour nous
C'est la nuit qu'on peut tricher
Toi qui ce soir a tout perdu
Demain tu peux gagner .

O mères, écoutez-moi
Ne laissez jamais vos garçons
Seuls la nuit traîner dans les rues
Ils iront tout droit en prison
Toi la fille qui m'a aimé
Je t'ai trop fait pleurer
Les larmes de honte que tu as versées
Il faut les oublier
Les portes du pénitencier
Bientôt vont se fermer
Et c'est là que je finirai ma vie
Comm'd'autres gars l'ont finie


Voici la tablature du Pénitencier





INTRO:
Lam Do Ré
E-----------0--------|-----------0--------|-----------2--------|
B--------1-----1-----|--------1-----1-----|--------3-----3-----|
G-----2-----------2--|-----0-----------0--|-----2-----------2--| X2
D--------------------|--------------------|--0-----------------|
A--0-----------------|--3-----------------|--------------------|
E--------------------|--------------------|--------------------|


COUPLET:
Lam Do Ré
E-----------0--------|-----------0--------|-----------2--------|
B--------1-----1-----|--------1-----1-----|--------3-----3-----|
G-----2-----------2--|-----0-----------0--|-----2-----------2--| X2
D--------------------|--------------------|--0-----------------|
A--0-----------------|--3-----------------|--------------------|
E--------------------|--------------------|--------------------|

Lam Do Ré Fa
E-----------0--------|-----------0--------|-----------2--------|-----------2--------|
B--------1-----1-----|--------1-----1-----|--------3-----3-----|--------1-----1-----|
G-----2-----------2--|-----0-----------0--|-----2-----------2--|-----2-----------2--| X2
D--------------------|--------------------|--0-----------------|--------------------|
A--0-----------------|--3-----------------|--------------------|--------------------|
E--------------------|--------------------|--------------------|--1-----------------|

Lam Mi Lam Mi
E-----------0--------|-----------0--------|-----------0--------|-----------0--------|
B--------1-----1-----|--------0-----0-----|--------1-----1-----|--------0-----0-----|
G-----2-----------2--|-----1-----------1--|-----2-----------2--|-----1-----------1--| X2
D--------------------|--------------------|--------------------|--------------------|
A--0-----------------|--------------------|--0-----------------|--------------------|
E--------------------|--0-----------------|--------------------|--0-----------------|

Lam Do Ré
E-----------0--------|-----------0--------|-----------2--------|
B--------1-----1-----|--------1-----1-----|--------3-----3-----|
G-----2-----------2--|-----0-----------0--|-----2-----------2--| X2
D--------------------|--------------------|--0-----------------|
A--0-----------------|--3-----------------|--------------------|
E--------------------|--------------------|--------------------|

Lam Do Ré Fa
E-----------0--------|-----------0--------|-----------2--------|-----------2--------|
B--------1-----1-----|--------1-----1-----|--------3-----3-----|--------1-----1-----|
G-----2-----------2--|-----0-----------0--|-----2-----------2--|-----2-----------2--| X2
D--------------------|--------------------|--0-----------------|--------------------|
A--0-----------------|--3-----------------|--------------------|--------------------|
E--------------------|--------------------|--------------------|--1-----------------|

Lam Mi Lam Mi
E-----------0--------|-----------0--------|-----------0--------|-----------0--------|
B--------1-----1-----|--------0-----0-----|--------1-----1-----|--------0-----0-----|
G-----2-----------2--|-----1-----------1--|-----2-----------2--|-----1-----------1--| X2
D--------------------|--------------------|--------------------|--------------------|
A--0-----------------|--------------------|--0-----------------|--------------------|
E--------------------|--0-----------------|--------------------|--0-----------------|


.

phrasés blues à connaître

BLUES - Editeur : Mosquito - Scénario : Toppi - Dessin : Toppi




Quelques notes noires... Quand le magicien Toppi entreprend de nous emmener dans le Sud profond pour nous jouer deux Blues de sa composition, on sait que l’on ne sortira pas indemne du voyage. La musique comme vecteur du fantastique et de la mort sont les deux thèmes que développe le maestro. La première histoire réalisée en Italie pour la revue Corto Maltese en 1990 nous conte les errances d’un saxophoniste noir dans l’Amérique des années quarante, les petits malfrats de la mafia ne pèsent pas lourd avec leurs Smith & Wesson lorsque retentissent quelques notes de Blues. La seconde histoire, L’héritier, a été dessinée en 2007 pour Mosquito et plonge dans les racines du Blues à la fin du dix-neuvième siècle. Vaudou et musique jouent une semblable partition funèbre…





En voir plus


.

Ground on down.

La guitare est accordée en open de Do (Do, Sol, Do, Do, Sol, Do)







paroles

I believe in a few things
God the devil and love
cause I've looked up from the bottom
and I've stared down from above

I have faith in a few things
divinity and grace
but even when I'm on my knees
I know the devil prays

and you're working your way
from the ground on down

I hate to say I love you
because it means that I
will be with you forever
or will sadly say goodbye

I love to say I hate you
because it means that I
will live my life happily without you
or will sadly live a lie

and you're working your way
for the ground on down

life is short
and if your lookin' for extension
with your time
you had best do well
cause there's good deeds
and there is good intention
they're as far apart
as heaven and hell

and you're working your way
from the ground on down

------------------

Je crois en deux trois choses
Dieu, le diable et l'amour
Car j'ai relevé la tête depuis le fond
Et j'ai penché mon regard depuis le sommet

J'ai la foi en deux trois choses
La divinité et la grâce
Mais même lorsque je suis à genoux
Je sais que le diable prie

Et tu frayes un chemin
plus bas que terre

Je déteste dire que je t'aime
Parce que ça veut dire que je
Serai avec toi pour toujours
Ou que tristement je dirai au revoir

J'adore dire que je te déteste
Parce que ça veut dire que je
Vivrai heureux sans toi
Ou que tristement je vivrai dans un mensonge

Et tu frayes un chemin
plus bas que terre

La vie est courte
Et si tu cherches une prolongation
De ton temps
Tu ferais mieux de bien faire
Car il y a les bonnes actions
Et il y a les bonnes intentions
Elles sont aussi éloignées
Que le paradis et l'enfer

Et tu frayes un chemin
plus bas que terre





.

Messages les plus consultés