le pénitencier - johnny hallyday - tablature.



Paroles

Les portes du pénitencier
Bientôt vont se fermer
Et c'est là que je finirai ma vie
Comm'd'autres gars l'ont finie
Pour moi ma mère a donné
Sa robe de mariée
Peux-tu jamais me pardonner
Je t'ai trop fait pleurer
Le soleil n'est pas fait pour nous
C'est la nuit qu'on peut tricher
Toi qui ce soir a tout perdu
Demain tu peux gagner .

O mères, écoutez-moi
Ne laissez jamais vos garçons
Seuls la nuit traîner dans les rues
Ils iront tout droit en prison
Toi la fille qui m'a aimé
Je t'ai trop fait pleurer
Les larmes de honte que tu as versées
Il faut les oublier
Les portes du pénitencier
Bientôt vont se fermer
Et c'est là que je finirai ma vie
Comm'd'autres gars l'ont finie


Voici la tablature du Pénitencier





INTRO:
Lam Do Ré
E-----------0--------|-----------0--------|-----------2--------|
B--------1-----1-----|--------1-----1-----|--------3-----3-----|
G-----2-----------2--|-----0-----------0--|-----2-----------2--| X2
D--------------------|--------------------|--0-----------------|
A--0-----------------|--3-----------------|--------------------|
E--------------------|--------------------|--------------------|


COUPLET:
Lam Do Ré
E-----------0--------|-----------0--------|-----------2--------|
B--------1-----1-----|--------1-----1-----|--------3-----3-----|
G-----2-----------2--|-----0-----------0--|-----2-----------2--| X2
D--------------------|--------------------|--0-----------------|
A--0-----------------|--3-----------------|--------------------|
E--------------------|--------------------|--------------------|

Lam Do Ré Fa
E-----------0--------|-----------0--------|-----------2--------|-----------2--------|
B--------1-----1-----|--------1-----1-----|--------3-----3-----|--------1-----1-----|
G-----2-----------2--|-----0-----------0--|-----2-----------2--|-----2-----------2--| X2
D--------------------|--------------------|--0-----------------|--------------------|
A--0-----------------|--3-----------------|--------------------|--------------------|
E--------------------|--------------------|--------------------|--1-----------------|

Lam Mi Lam Mi
E-----------0--------|-----------0--------|-----------0--------|-----------0--------|
B--------1-----1-----|--------0-----0-----|--------1-----1-----|--------0-----0-----|
G-----2-----------2--|-----1-----------1--|-----2-----------2--|-----1-----------1--| X2
D--------------------|--------------------|--------------------|--------------------|
A--0-----------------|--------------------|--0-----------------|--------------------|
E--------------------|--0-----------------|--------------------|--0-----------------|

Lam Do Ré
E-----------0--------|-----------0--------|-----------2--------|
B--------1-----1-----|--------1-----1-----|--------3-----3-----|
G-----2-----------2--|-----0-----------0--|-----2-----------2--| X2
D--------------------|--------------------|--0-----------------|
A--0-----------------|--3-----------------|--------------------|
E--------------------|--------------------|--------------------|

Lam Do Ré Fa
E-----------0--------|-----------0--------|-----------2--------|-----------2--------|
B--------1-----1-----|--------1-----1-----|--------3-----3-----|--------1-----1-----|
G-----2-----------2--|-----0-----------0--|-----2-----------2--|-----2-----------2--| X2
D--------------------|--------------------|--0-----------------|--------------------|
A--0-----------------|--3-----------------|--------------------|--------------------|
E--------------------|--------------------|--------------------|--1-----------------|

Lam Mi Lam Mi
E-----------0--------|-----------0--------|-----------0--------|-----------0--------|
B--------1-----1-----|--------0-----0-----|--------1-----1-----|--------0-----0-----|
G-----2-----------2--|-----1-----------1--|-----2-----------2--|-----1-----------1--| X2
D--------------------|--------------------|--------------------|--------------------|
A--0-----------------|--------------------|--0-----------------|--------------------|
E--------------------|--0-----------------|--------------------|--0-----------------|


.

Aucun commentaire:

Messages les plus consultés