Rock Riff #1 (classic rock... Rolling Stones...

Rhythm Guitar Etude 1

Lead Guitar Etude #2

Blues Rock Lead in A - video tabs

Tablature Hopkins Lightning / Big Mama Jump

Un très beau morceau d'un des maîtres du blues : Sam "Lightnin'" Hopkins.


E------------------/-----------0------/--0--------------0--------/
B---------------0--/--0--0--2--0--2---/--0--2-----------0--------/
G------------------/------------------/-----------0--1--------0--/
D---1-2------------/------------------/--------------------------/
A------------------/------------------/--------------------------/
e--------0---0-----/--0-----0--0--0---/--0-----0-----0-----0-----/




E-----------0----0---------/--0--------3b-----0--------------------/
B--------0--2----0----2----/--0--2------------0--------------------/
G-----1--------------------/---------------------------------------/
D--------------------------/---------------------------------------/
A--------------------------/---------------------------------------/
e-----0-----0----0----0----/--0-----0------0-----0-----------------/

Messages les plus consultés