Bottleneck Guitar Ebook

Learn to Play Bottleneck Guitar
Par Fred Sokolow


Bottleneck/Slide Guitar Ebook

Bottleneck/Slide Guitar
Par Fred Sokolow

Blues Guitar Débutant ebook

Beginner's Blues Guitar
Par Fred Sokolow


Sweet Home Alabama Guitar Lesson

Sweet Home Alabama 1, Lynyrd Skynyrd (Guitar Lesson)

Philippe Ménard, One Man Band

Après s’être illustré avec TEQUILA , Philippe Ménard, le guitariste chanteur du groupe, s’est converti dans le One Man Band, remettant à l’honneur la tradition du blues dans laquelle un seul musicien joue à la fois de la guitare, de l’harmonica et de diverses percussions (grosse caisse, tambourin, caisse claire).

Il alterne avec bonheur les couleurs sonores : acoustiques et électriques, restant fidèle à son style « rock & blues ». Cette formule lui permet d’explorer aussi bien le blues des précurseurs de genre Joe Hill Louis, Juke Boy Bonner… que celui des sixties/seventies tels Hendrix, Gallagher, Stones… tout en présentant ses compositions.




www.philippemenard.com

Philippe Menard


Philippe Menard à COUERON
envoyé par chabossiere. - Regardez plus de clips, en HD !

Toni BRaxton Love Me Tender

Norah Jones love me tender

Love Me Tender -The Timers-

love me tender


Love me tender.... Or else...
envoyé par svenstar07. - Watch more comedy videos and sitcoms.

Elvis Presley - Love Me Tender

Paroles de Love me tender

(words & music by vera matson - elvis presley)
Love me tender,
Love me sweet,
Never let me go.
You have made my life complete,
And I love you so.

Love me tender,
Love me true,
All my dreams fulfilled.
For my darlin I love you,
And I always will.

Love me tender,
Love me long,
Take me to your heart.
For it's there that I belong,
And well never part.

Love me tender,
Love me dear,
Tell me you are mine.
Ill be yours through all the years,
Till the end of time.

(when at last my dreams come true
Darling this I know
Happiness will follow you
Everywhere you go).

Partition LOVE ME TENDER E.Presley

 

Intro
e------------
B----0-----0-
G----0-----0- x2
D-0----------
A------------
E-------3----


Couplet 1
G A7 D7 G
G A7 D7 G


REFRAIN
G B7 Em G7

C Cm G

E7 A

D7 G


Couplet 2
G A7 D7 G

G A7 D7 G


REFRAIN
G B7 Em G7

C Cm G

E7 A

D7 G

Couplet 3
G A7 D7 G

G A7 D7 G


REFRAIN FINAL
G B7 Em G7

C Cm G

E7 A

D7 G

Tablature Love in vain (Robert Johnson)



E||--10----10--10--10--10--10--10--|--10----9-----9---9---9---9---|
B||--12----12--12--12--12--12--12--|--12----11----11--11--11--11--|
G||--------------------------------|------------------------------|
D||--------------------------------|------------------------------|
A||--------------------------------|------------------------------|
E||--------------------------------|------------------------------|



--9-----8---8---8---8---8-----|--8--------3--5--3--3--3--|
--11----10--10--10--10--10----|--10----------------------|
------------------------------|--------0--------3--------|
------------------------------|--------------------------|
------------------------------|--------------------------|
------------------------------|--------------------------|



--3--3--3--3----3----2--|--2--2--2--2-----------|--3--------------------|
---------------------1--|--1--1--1--1-----------|--0-----------------3--|
--2--------2----1-------|-----------------------|-----------------------|
---------------------0--|--0--0-----0----0------|-----------------------|
------------------------|--0--------0----0------|-----------2--2--2-----|
------------------------|--2--------2----2------|--3--------3--3--3-----|



--1----1-----------------|--1-------------------|--1-----1--1----1--------|
--3----------------2--3--|--3-------------------|-----3-----3----3--------|
-------------------0-----|----------------------|-------------------------|
----------0--0--0--------|----------------------|-------------------------|
----------2--2--2--------|--2----2----2----2----|--2--------2-------2--2--|
--3-------3--3--3--------|--3----3----3----3----|--3--------3-------3--3--|



--3----3----3----------|--3--------------------|-------1-----------2--2--|
-----------------------|--1--------------------|--3-------------1-----1--|
-----------------------|--------------------0--|-------------0--------0--|
--3--------------------|-------2----2----2-----|----------0--0--------0--|
------------3----2--2--|--2----3----3----3-----|----------2--------------|
------------3----------|--3--------------------|--3----------------------|



--3-------------------|--3--------------------|--------2--2--2---------|
--0-------------------|-----------------------|-----1------------------|
----------------------|-----------------------|------------------------|
----------------------|-------2----2----0-----|--0----------------0----|
--2----2----2----2----|-------0----0----0-----|--0----------------0----|
--3----3----3----3----|--0--------------0--2--|--2-----2-----2----2----|



--3-------------------|--3-----2--------------||
----------------------|-----1--1--------------||
----------------------|-----------------------||
--3----2----1----0----|--------0----0----0----||
----------------------|--------0----0----0----||
----------------------|--3-----2----2----2----||

Tablature 32-20 Blues (Robert Johnson)



E ||--9-------------------|--8--8--------7--7--------|-------5----5--5--5----|
C#||--8-------------------|--7--7--------6--6--------|------------5----------|
A ||--9-------------------|--8--8-----7--7--7--------|-----------------------|
E ||----------------------|--------------------7--6--|--2---------5--4--3----|
A ||--0----0----0----0----|--0-----0-----0-----0-----|--0--------------------|
E ||----------------------|--------------------------|-----------------------|



--5--0----0--0----------|--0-------------------|--5-------------------|
------------------------|----------------------|----------------------|
------------------------|----------------------|----------------------|
--2-------0-------0--0--|----------------------|----------------------|
----------2-------2-----|--0----0----0----0----|--0----0----0----0----|
----------0-------0-----|----------------------|----------------------|



--0--------0--0--0--0-----|--5----4----3---------|----------------------|
--2-----------1--------2--|----------------------|----------------------|
-----------------------2--|----------------------|--5-------------------|
--------------------4-----|-------2--------------|--4----4----4----4----|
--0--0--0--0--------0-----|--0----0----0----0----|--5----5----5----5----|
--------------------------|----------------------|----------------------|



----------------------|-----5--3--3--------0----|--5--3--2--0-----------0--|
----------------------|-----------------2-------|--------------------------|
-------5--------------|-------------------------|--------------------------|
--4----4----4----4----|--------2-----2----------|--2-----------------2-----|
--5----5----5----5----|--0--0--------0----------|--0--------------4--0-----|
----------------------|-------------------------|--------0-----0-----------|



----------------------|------------------------|-----5--5--5--5--5--5--0--|
----------------------|---------------1--------|--------------------------|
----------------------|--------------------2---|--------5-----2-----2-----|
--0----0----0----0----|--0---------------------|--------------4-----3-----|
--2----2----2----2----|--0----0----0----0------|--0-----------------------|
--0----0----0----0----|--2----2----2----2------|--------------------------|



--0----0--------------|--9--------------------|--8-------------------|
----------------------|--8--------------------|--7-------------------|
----------------------|--9-----------8--------|----------------------|
----------0-----------|-----------------------|----------------------|
----------2-----------|--0--0--0--0-----------|--0----0----0----0----|
--0------------0------|-----------------------|----------------------|



--9-------------------|--5----5--4----3--3-----|----------------------|
--8-------------------|------------------------|----------------------|
--9-------------------|------------------------|----------------------|
----------------------|------------------------|--4----4----4----4----|
--0----0----0----0----|--0-------0----0-----0--|--5----5----5----5----|
----------------------|------------------------|----------------------|



----------------------|-------0--------------|-------5--3--2--2--5-----|
----------------------|-------2--------------|-------------------------|
--5-------------------|----------------------|--2----------------------|
--4----4----4----4----|-----------------2----|----------2-----2--------|
--5----5----5----5----|--0---------0----0----|--0-------0-----0--------|
----------------------|----------------------|----------------------0--|



----------------------|------------------------|-------5-----5----5--5--|
----------------------|-----------1------------|------------------2--2--|
----------------------|-------------------2----|------------------4--3--|
--0----0----0----0----|--0---------------------|--2-------5-------------|
--2----2----2----2----|--0--0--0-----0---------|------------------------|
--0----0----0----0----|--2--2--2-----2---------|------------------------|



--0----0---------------|-------5----5----5----|-----------------3----||
------------3----------|----------------------|--0--------------2----||
------------1----------|--2-------------------|-------0---------2----||
--0---------------0----|--2----5----4----3----|------------0----2----||
-------2-------2-------|--0-------------------|-----------------0----||
--0----0-------0-------|----------------------|----------------------||

Tablature Crossroad Blues / Robert Johnson





Intro
w/slide
|--11/12----11/12~~~----------------------------------------|
|-----------11/12------11/12--------------------------------|
|-----------------------------12~~~---10-3/4------0---------|
|-----------------------------------------3/4------0--------|
|-----------------------------------------------------------|
|-----------------------------------------------------------|

|-----------------------------------------11/12----|
|-----------------------------------------11/12----|
|-----x--0-0-0-0--0--0-0---0-----------x-----------|
|--------3-3-3-2--2--1-1---0-----0-----x-----------|
|--0-------------------------2/4-------------------|
|--------3-----2-----1-1---0-------0---x-----------|

Verse

|--11/12--0-------------7/10-12-12-12-12~~-------------------|
|--11/12----------------7/10-12-12-12-12~~-------------------|
|-----------------------7/10-12-12-12-12~~-------------------|
|-----0-----0---0---0------------------0----11---------------|
|-----0-----0-x-0---0-----------------------11---2-----------|
|-------------------------------------------11---0-----------|

|---11/12-11/12-12-12-12------------12-11-12-11/12--11/12------0-0------|
|---11/12-11/12-12-12-12------10/12-12-11-12-11/12--11/12------0-0------|
|------------------------------10/12--0-----0--------------12--0-0------|
|-0-----------------------0-----------------------0--------12--0-0------|
|-0-----------------------0---0-----------------------------------------|
|-----------------------------------------------------------------------|


|---5--5--5--3--2--0------0---------5--3---3-----2--2--3-------|
|---0--0--0--0--0--0--0---0---------0--0---0-----3--3--0-------|
|------0--0-----0--0--3bq-0---------0--0---0-------------------|
|-0----------------0--0---0------0--0--0---0--------0--0-------|
|-0------------------------------0---------------------0-------|
|---------------------------2-0---------------0----------------|


|---8bq---5---8h10-8-----------8bq----5---8bq--5-----|
|-------5---5-----------------------5---5------------|
|-------5---5----0------------------------5----------|
|------------------------------------------------0---|
|-0------------------0-7/12--0-------------------0---|
|----------------------------------------------------|

|---11/12-12-11-12-11/12--12-----------5-3-2-0-----0----------------|
|---11/12-12-11-12-11/12--12-12-------0-0-0-0-------0---------------|
|---11/12-12-11-12-11/12--12-12---------0-----3bqp0-0-3-0-----------|
|----------------------0----------0---0--0---------------0--0-------|
|-0--------0------------------0---0---0--0--------------------------|
|-0---------------------------------0---------------------3---------|

|---5-3-0--2-2-3-------------------------|
|---0-0-0--3-3-3-------------------------|
|---0-0-0----0-0-------------------------|
|-0---0-0-0----0-------4/5~~~~-----------|
|-0---0-0-0----0------------------0------|
|------------------------------3---------|


|---5-3-2-0-0----------------5-5---5-------11/12-----|
|---0-0-0-0-0----------------0-0---0-------11/12-----|
|---0-0---0-0--3bq--0---0----0-0---0-----------------|
|-0-0-0-----0--0----0---0----0-0---0----0------------|
|-0---------0-------0-----0----------0--0------------|
|---------------------3------------------------------|

Tablature Johnson Robert / crossroad

 E---------------------------|
B---------------------------|
D----2--0--2----0--2--0-----|jouer sa 4 fois , puis
G---------------------------|
A--0---------------------3b-|
E---------------------------|
' ' ' '

E--------2--------------|-------2----------------|
B---1----------1----1---|---1---------1----1-----|
D-----2----------2----2-|-----2---------2--------|
G-0---------------------|-0------------------3b--|
A-----------------------|------------------------|
E-----------------------|------------------------|
' ' ' ' ' ' ' '

E--------------------------|------------------------|
B--------------------------|------------------------|
D---2--0--2----0--2--0-----|---2--0--2----0--2--0---|
G--------------------------|------------------------|
A-0---------------------3b-|-0----------------------|
E--------------------------|----------------------3b|
' ' ' '


E---------0-----------0-|--2-----------------|
B---0-----------4-------|--1--------------1--|
D------1-----------4----|--2--------0--2-----|
G-----------------------|--0--0--2-----------|
A-----------------------|--------------------|
E-0---------------------|--------------------|
' ' ' ' ' ' ' '

E----0--5--3--0-----|---0------------|-0-------|
B----------4----3-1-|-2---2----------|-1-------|
D-2---------------0-|-2-----2--------|-0-------|
G-------------------|----------------|-2-------|
A-0-----------------|----------------|-0-------|
E-------------------|------------0---|---------|
' ' ' ' ' ' ' ' ' ' ' '

Tablature sweet home chicago/ Robert Johnson










Introduction




E--12--12--12---|-12-12-12-12-12-12-12-9/10-|-10--0-------------------|
B---------------|---------------------------|--------------0----------|
G---------------|---------------------------|-9---------2--------2----|
D---------------|-11----------10----10---9--|-9---0--1--------1-------|
A---------------|---------------------------|--------2--------2-------|
E---------------|---------------------------|--------2--------2-----2-|



Oh - ah. Baby don't you want to go?

E E6 E7/5 E7/6 A5 A6 A7 A6 E E6 E5 E6

E------------------|-------------------|-----0--------------|
B----0-------------|-------------------|--------------------|
G--0-1-----------0-|--2-------------0--|-0-1-----------0-0--|
D----------0---0---|--2---4---5---4----|--------------------|
A------4-----2-4---|--0-0-0-0-0-0-0----|---2---4-2-2-4------|
E------0-0---0-0---|-------------------|---0---0-0-0-0------|



Oh - oh. Baby don't you want to go?

E E6 E5 E6 A5 A6 A7 A6 A7 A6 A7 A6

E------0---------------|-------------------|-----0--------------|
B----------------------|-------------------|--------------------|
G--0-1---------------0-|----------------0--|-0-1-----------0-0--|
D----------------------|--2---4---5-5-4----|--------------------|
A----2---2-4-4-2-2-4---|--0-0-0-0-0-0-0-0--|---2---4-2-2-4------|
E----0---0-0-0-0-0-0---|-------------------|---0---0-0-0-0------|



Back to the land

E E6 E7 E6 E E6 E5 E6

E------0---------------|------0--------------|
B----------------------|---------------------|
G--0-1-------------0-0-|--0-1----------------|
D------------0---------|---------------------|
A----2---4---2---4---4-|----2---4-4-2-2-4----|
E----0---0-0-0-0-0---0-|----0-0-0-0-0-0-0-2--|



of California to my sweet home Chicago

B/F# B N.C. E5 E7 Edim7 Am

E----------------------|--7*----7*-7*-7*--------0-|----------0---0-0---0-|
B------------0---------|--8*-8*-8*-8*-8*--0--2----|--------3---2---1-----|
G--------------------0-|--------------------------|----2-4-----3---2-0-1-|
D--1----1----1---------|--------------------------|----------------------|
A--2----2----2---2-----|--------------------------|--2-------------------|
E--2----2--------------|--------------------------|--0-------------------|



E B7

E--------------------------------|
B--------0--0-----0-----0--------|
G--------------2--2--2--2-----0--|
D----2---1--1--------1-----1-----|
A----2------2--------2-----2-----|
E----0---2-----------------------|



Ending


N.C. E5/B E7 E6 C(no 5th) E5/B E7

E-----0--12---|--12-12----12-12-12-12-12-12--|--12--------10--10--|
B-------------|--------12--------------------|----------------9---|
G-------------|------------------------------|------0---------9---|
D---7/9-------|--12-------11-11-------10-10--|--9------9----------|
A-------------|------------------------------|--------------------|
E-------------|------------------------------|--------------------|

B minor bluesy metal lick

Messages les plus consultés