Rod Stewart - Maggie May

TABS Maggie May

Beginning part 1 (0:00) (played on a nylon string acoustic) (play twice)
e|---5----3-0------3-0--5-3p2p0------0-----------------------------------------|
B|--------5-2----2-2-2------------2--------------------------------------------|
G|-2---2-------2---2-----------------------------------------------------------|
D|-------------------------------------7-5-2-----------------------------------|
A|-------------------------------------5-3-0-----------------------------------|
E|-----------------------------------------------------------------------------|
Beginning part 2 (0:14) (played on a nylon string acoustic) (play twice)
e|-0--7-5-3p2p0---0---------------------------|
B|-0------------3-----------------------------|
G|-0---------------------2-4------------------|
D|-2-----------------4-5-0-2------------------|
A|-2-----------------2-3----------------------|
E|-0------------------------------------------|
Pre-verse (0:31) (steel string acoustic)(this is how I play it, but these are actually
the chords that the guitarist uses to make the riff)
e|---2-2-2-2-2--3-3-3-3-3-3--3-3-3-3-3-3--2-2-2-2-2-2-----|
B|-3-3-3-3-3-3--3-3-3-3-3-3--3-3-3-3-3-3--3-3-3-3-3-3-----|
G|-2-2-2-2-2-2--0-0-0-0-0-0--0-0-0-0-0-0--2-2-2-2-2-2-----|
D|-0-0-0-0-0-0--0-0-0-0-0-0--0-0-0-0-0-0--0-0-0-0-0-0-----|
A|-0-0-0-0-0-0--2-2-2-2-2-2--2-2-2-2-2-2--0-0-0-0-0-0-----|
E|--------------3-3-3-3-3-3--3-3-3-3-3-3------------------|

e|---2-2-2-2-2--3-3-3-3-3-3--3-3-3-3-3-3--2—x-x-2-2-------|
B|-3-3-3-3-3-3--3-3-3-3-3-3--3-3-3-3-3-3--3—x-x-3-3-------|
G|-2-2-2-2-2-2--0-0-0-0-0-0--0-0-0-0-0-0--2—x-x-2-2-------|
D|-0-0-0-0-0-0--0-0-0-0-0-0--0-0-0-0-0-0--0—x-x-0-0-------|
A|-0-0-0-0-0-0--2-2-2-2-2-2--2-2-2-2-2-2--0------0-0------|
E|--------------3-3-3-3-3-3--3-3-3-3-3-3------------------|


Verse 1 (0:46) (steel string acoustic)
A G D
Wake up Maggie I think I've got something to say to you
A G D
It's late september and I really should be back at school
G D G A
I know I keep you amused But I feel I'm being used
Em F#m Em A
Oh Maggie I couldn`t have tried any more
Em A Em A
You lured me away from home just to save you from being alone
Em A D
You stole my heart, and that's what really hurts


Verse 2 (1:30) (steel string acoustic)
A G D
The morning sun when it's in your face really shows your age
A G D
But that don't worry me none, in my eyes you're everything
G D G A
I laughed at all your jokes, my love you didn't need to coax
Em F#m Em A
Oh Maggie I couldn`t have tried any more
Em A Em A
You lured me away from home just to save you from being alone
Em A D
You stole my soul that's a pain I can do without

Verse 3 (2:15) (steel string acoustic)
A G D
All I needed was a friend to lend a guiding hand
A G D
But you turned into a lover and mother what a lover you wore me out
G D G A
All you did was wreck my bed And in the morning kick me in the head
Em F#m Em A
Oh Maggie I couldn`t have tried any more
Em A Em A
You lured me away from home 'cause you didn't want to be alone
Em A D
You stole my heart I couldn't leave you if I tried

Guitar solo 1 (3:00) (electric) (chords played on a steel string acoustic)
A G D A G
e|---------------------------------------------------------------------------------|
B|---------------------------------------------------------------------------------|
G|---------------------------------------------------------------------------------|
D|-----------------------------------9^-12-----------------------------------12----|
A|-9-12-9/7-5----9-12-9/7-5------9-12-----9---9-7-5-------5---9-12-9/7-5--------12-|
E|-----------7--------------7-----------------------7-7-7---------------7----------|
D
----------------------------|
----------------------------|
----------------------11----|
-------------------------12-|
-9p7/5---5------------------|
-------7--------------------|

Verse 4 (3:15) (steel string acoustic)

A G D
I suppose I should collect my books and get back to school
A G D
Or steal my daddy's cue make a living out of playing pool
G D G A
Or find myself a rock and roll band that needs a helping hand
Em F#m Em A
Oh Maggie, I wish I'd never seen your face
Em A Em A
You made a first class fool out of me, but I'm as blind as a fool can be
Em A D
You stole my heart but I love you anyway


Guitar Solo 2 (4:00) (electric) (chords played on a steel string acoustic)
A G D
e|------------------------------------------------------------------------------|
B|------------------------------------------------------------------------------|
G|----------------------------------------------------------11-11-9-------------|
D|------------------------------------------------9^------9-------12-9-12^-9----|
A|-9-12-9-7-5h7p5-----9-12-9-7-5h7p5---5---9-12-12--9---12----------------------|
E|----------------7------------------7------------------------------------------|
A G D
--------------------------------------------------------------------------------|
--------------------------------------------------------------------------------|
-11-14-11-11-9-7---11-14-11-11/9/7-4---11/9/7----11/9/7-4-11-7------------------|
----------------------------------------------------------------9-7-------------|
--------------------------------------------------------------------9-5---------|
--------------------------------------------------------------------------------|
A G D
---------------------------------------------------------------------------------|
---------------------------------------------------------------------------------|
-------------------------------------------------------11-11p9--11-14-11-11-9----|
------------------------------------------------9-12-9--------12-------------12--|
-9-12-9/7-5------9^12-9-7/5—5h7p5----9h12-12-12----------------------------------|
-----------7----------------7-----7----------------------------------------------|
A G
-10------------------------------------|
---10----------------------------------|
------10^10^-9---9---------------------|
--------------12---12------------------|
---------------------------------------|
---------------------------------------|

Mandolin Solo (4:25) (arranged for steel string acoustic)(repeat until song ends)
|-10-10-10-10-10-10-10-12-14-15-17-17-17-17-17-17-17-15-14-12-15-15-15-15-15-15-15-|
|-10-10-10-10-10-10-10-12-14-15-17-17-17-17-17-17-17-15-14-12-15-15-15-15-15-15-15-|
|----------------------------------------------------------------------------------|
|----------------------------------------------------------------------------------|
|----------------------------------------------------------------------------------|
|----------------------------------------------------------------------------------|

-14-12-12-10-10-10-10-10-10-10--|
-14-12-12-10-10-10-10-10-10-10--|
--------------------------------|
--------------------------------|
--------------------------------|
--------------------------------|

Outro (5:03)(continue mandolin solo)(chords on steel string acoustic)
D G D
Maggie, I wish I’d never seen your face
D G D

D G D
I’ll get on back home, one of these days

D G D
D G D

The Pogues - Maggie May

TABS Rocky Road To Dublin

INTRO
-------------------------------------------------------------------|
-------------------------------------------------------------------|
--2-5-2-0---------------------------0-2-5-2-0----------------------|
------------3-0-3-0-----0-0---0-3---------------3-0---3-2----------|
--------------------0---------------------------------------3-3----|
-------------------------------------------------------------------|

-------------------------------------------------------------------|
-------------------------------------------------------------------|
-------0-2-5-2-0---------------------------------------------------|
-0-2---------------3-0---------------------------------------------|
-------------------------------------------------------------------|
-------------------------------------------------------------------|

MAIN
--------------------------------------------------------------------------|
--------------------------------------------------------------------------|
(2-2)---2-2---2-0-------------------------0-2-5-2-0-----------------------|
-1st----------------3-0-------0-0---0-3---------------3-0---3-2-----------|
-verse--------------------0---------------------------------------3-3-----|
--------------------------------------------------------------------------|

-------------------------------------------------------------------|
-------------------------------------------------------------------|
-------0-2-5-2-0-------------------------0-2-5-2-0-----------------|
-0-2---------------3-0-------0-0---0-3---------------3-0---3-2-----|
-------------------------0-----------------------------------------|
-------------------------------------------------------------------|

-------------------------------------------------------------------|
-----------------------3-1-0-1-----------3-1-0-1-----------3-1-0-1-|
---------------0-2---2-----------2-2---2-----------2-2---2---------|
---------0-2-------------------------------------------------------|
---3-3-------------------------------------------------------------|
-------------------------------------------------------------------|

-------------------------------------------------------------------|
-----------------------------3-1-0-1-----------3-1-0-1-------------|
---2-0---------------0-2---2-----------2-2---2---------------------|
---------2-----0-2-------------------------------------------------|
-----------3-------------------------------------------------------|
-------------------------------------------------------------------|

-------------------------------------------------------------------|
----------3-1-0-1--------------------------------------------------|
--2-2---2-----------2-0---0-0---------------0-2---2-0--------------|
--------------------------------2-----0-2---------------3-0--------|
----------------------------------3--------------------------------|
-------------------------------------------------------------------|

--------------------------------------------------------------------|
--------------------------------------------------------------------|
-------------------0-2-5-2-0-------------------------0-2---2-0------|
-------0-0---0-3---------------3-0---3-2--------0-2-------------3-0-|
---0---------------------------------------3-3----------------------|
--------------------------------------------------------------------|

The Pogues - The Rocky Road To Dublin

ZZ Top en tournée juillet 2011


En tournée en 2010 dans l'hexagone, le groupe de Hard'N'Blues ZZ Top sera de retour en France en juillet prochain pour une nouvelle série de concerts. Les texans feront résonner leurs guitares dans plusieurs festivals (Beauregard, Cognac Blues Passions, Déferlantes d'Argelès) mais aussi lors de concerts où ils seront l'unique tête d'affiche (Lille, Tours, Lyon, Clermont-Ferrand, Marseille).

ZZ Top en concert : toutes les dates et réserver un billet

Queen : 15 albums remastérisés


À l’occasion de son 40e anniversaire en mars, Queen sortira les rééditions de ses 15 albums en version remastérisée. Le groupe iconique de rock sera également mis à l’honneur dans une exposition présentée à Londres, puis à travers le globe. En outre des albums, la maison disque de Queen proposera une édition limitée de sa première chanson « Keep Yourself Alive ». Bien qu’il ne soit plus des nôtres, Freddie Mercury, mythique leader de la formation anglaise, restera à jamais ancré dans l’Histoire de la musique.

Il faudrait être né dans une autre galaxie pour ne pas connaître la légende Queen ! Grâce à sa musique révolutionnaire, son authenticité et sa créativité, ce groupe est tout simplement unique. Bon nombre d’artistes, qui sont aujourd’hui devenus des géants de la musique, ont puisé leur inspiration dans la musique de Queen à un moment ou à un autre. On parle notamment de Michael Jackson, Guns N’ Roses, Metallica, Muse, Nirvana ou encore My Chemical Romance.



La musique de Queen est universelle et le groupe compte bien nous le démontrer, cette année, à l’occasion de son 40e anniversaire. Parmi ses chansons les plus connues, nous avons « We Will Rock You » ou encore « Somebody To Love ». Les 15 albums qu’il a présentés au cours de sa carrière sortiront par vague de 5 au printemps prochain. Ces opus de Queen sortiront tous en version Deluxe, chaque coffret comportant deux disques. Les albums présenteront des titres remastérisés, des raretés et des inédits.

Les 5 premiers albums réedités de Queen

Outre ces albums retravaillés, Queen sera également honoré dans une exposition exclusive nommée « Stormtroopers in Stilettos », à partir d’aujourd’hui, à Londres. Cette galerie parcourra par la suite le tour du globe. Le 12 avril prochain, les fans pourront mettre la main sur une édition limitée signée Queen, avant de retrouver les albums remastérisés. La maison de disque Hollywood Records proposera la première chanson de la formation britannique, « Keep Yourself Alive », en format vinyle, qui sera accompagné de sa face B ; « Son and Daughter ».

Au cours de sa carrière, Queen a vendu plus de 300 millions d’exemplaires de ses albums dans le monde. Malgré la perte du chanteur légendaire à la voix d’or, Freddie Mercury, le groupe n’a pas perdu de sa gloire et a continué sur la route du succès.

Histoire du rock et de la chanson française Par Denis Gérardy

Préface de Pierre RAPSAT. Voici un livre-clip. Vedettes : Bill Haley, Fats Domino, Lavilliers, Clash, Supertramp, Sheller, Scorpions, Renaud, Barclay James Harvest, et autres Talking Heads. Une musique, des musiques, mais surtout, un phénomène social. Une contre-culture. Against Racism ou contre la crise. «Liège-la-Rouge, une guitare hurle sur ta colline... Voilà que le Rock réveille la Meuse.» Et si la dernière phrase de ce livre était une image prémonitoire ? (E. Blatthen). Illustrations.


Methode de Guitare Rock Shop

Les 30 meilleurs groupes de rock anglais des années 60

Cette musique, partit en 1963 de Liverpool, a suscité bien des passions et c’est la raison pour laquelle Eddy Facoury, désireux de faire partager son enthousiasme, a eu l’idée d’écrire un livre sur les trente meilleurs groupes de cette époque, depuis leur création jusqu’à leur dissolution ou leur renaissance de nos jours. C’est donc un palmarès très documenté et illustré de photos largement inédites ainsi que de pochettes de disque originales que nous vous présentons.
Les nostalgiques des années soixante y trouveront leur compte de souvenirs et les jeunes y apprendront à mieux connaître une musique à laquelle la plupart des groupes actuels font référence.


Some Clichés Par Pierre Mikaïloff

une enquête sur la disparition du rock'n'roll

Nous les avions aimé parce qu'ils étaient beaux, sales, incultes : les rockers ! Souvenez-vous, c'était au XX° siècle. Ils n'occupaient pas encore la une des médias mais, en revanche, sortaient de putains de disques. D'orgies sonores en slogans nihilistes, nous imaginions l'avenir radieux quand, au début des années 80, tout a commencé à aller de travers. Que reste-t-il aujourd'hui de cette fun, fun music, capable de faire basculer son auditeur dans un univers de stupre et de chaos en moins de trois minutes ?





Site de l'Auteur

.

La route Du Rock 2010

La Route du Rock


La sixième Collection Hiver de La Route du Rock se déroule à Saint-Malo (à l'Omnibus, l'Escalier Club et la Chapelle Saint-Sauveur) du 18 au 20 février 2011 et également à Rennes pour deux soirées, le 11 février au Conservatoire et le 17 février à L'Antipode. Le festival promet de beaux moment rock avec une programmation musicale internationale.


Avec les Californiens Cold War Kids, la folk canadienne de Timber Timbre, José González et son nouveau groupe Junip, Isobel Campbell accompagnée de Mark Lanegan, les jeunes Chicagoans de Disappears avec Steve Shelley (de Sonic Youth) à la batterie, Dean Wareham qui revisitera le catalogue mythique de Galaxie 500...


En savoir plus sur le site : La Route du Rock

Bandes électriques et rock dessiné



Découvrez Rock et bande dessinée : Riff à l'honneur au Havre sur Culturebox !

Festival des Nuits de l'Alligator



Sixième saison, chaude et humide, pour les Nuits de l’Alligator. Créé par trois amateurs de musique qui vient de là (du blues donc), le festival né à la Maroquinerie poursuit son périple au milieu des herbes folles du folk, dans les méandres du blues illicite, au fond du garage, au cœur de la soul.

Depuis 2006, on y aura croisé plus de 80 artistes : d’antiques bluesmen, des jeunes pousses anti-folk, des rockers déviants, des rêveurs impénitents, les pieds sur terre (celle des musiques roots américaines) et la tête dans les étoiles de nos nuits sauriennes.

La philosophie du festival n’a pas changé, toujours aussi vaste, large et ouverte que l’embouchure du Mississippi : caresser la musique à reblues-poil, dans le but avoué d’hérisser celui (de poil) de l’auditeur.

En Savoir Plus

Les Enfants du Rock à Chambéry


Le point commun entre musique, danse, théâtre et cinéma à Chambery c’est : le rock. Le festival pluridisciplinaire Les Enfants du rock qui se tient à Chambéry du 17 au 20 février construit son programme sur ce courant et s’interroge sur les formes d’inspirations qu’il a semées. Depuis 2005, le Centre National du Théâtre prend chaque année ses quartiers d’hiver dans une ville française à l’occasion de son festival « Scène Grand Écran », cette année, c’était au tour de Chambéry, où l’équipe de Jean-Paul Angot – directeur de l’espace Malraux Scène Nationale de Chambéry et de la Savoie – qui a eu le choix du thème, a proposé le « rock ». Des passerelles entre les disciplines du spectacle ont été tissées.

Il y a trente ans le rock était largement diffusé par l’émission Les enfants du rock de Pierre Lescure sur Antenne 2, aujourd’hui cette musique se retrouve dans tous les domaines. De ce constat a germé l’idée d’un festival pluridisciplinaire, dont la programmation prévoit dix-sept films rock qui se déclinent en cinq thématiques, une exposition de photos « participatives » avec Renaud Monfourny (photographe attitré des Inrockuptibles), un ciné-concert, des courts-métrages, des concerts et encore d’autres activités, toutes réparties sur quatre jours et trois nuits dans l’esprit festif du rock’n’roll .

L’exposition de Monfourny présente des clichés de cent cinquante personnes qui ont accepté de poser avec leur objet « rock » fétiche : disque, instrument, t-shirt etc. laissant ainsi libre cours à l’imagination et aux souvenirs de chacun. A côté tous les spectacles se basent sur le principe d’éclectisme qui est aussi le maître-mot du programme, et abordent le rock sous sa forme la plus sauvage et électrique, puis sous son aspect country sentimentale et poétique. Un bel hommage sera rendu au Velvet Underground par Rodolphe Burger, qui a conçu un spectacle « Etre plus Velvet que le Velvet ! » où il s’attaque au répertoire du célèbre groupe new-yorkais sans chercher à l’imiter mais en réinterprétant chaque chanson comme s’il les avait écrites lui-même, dans la continuité de son approche sur la reprise. Pour clôturer le festival Les Enfants du rock à Chambéry Rodolphe Burger l’invité d’honneur a convié James Blood Ulmer, son propre invité.

Source de l'info QOBUZ.COM

Le site des Enfants du Rock de Chambéry

Jailbreak - Thin Lizzy

Tabs :Thin Lizzy Jailbreak

Artist: Thin Lizzy
Song: Jailbreak








INTRO:
e|----------|
B|---15fb---|
G|----------|
D|----------|
A|----------|
E|----------|

(Fill 1): with wah wah
hold bend-------¬
e|-------|-------------------------------------|------------|
B|--12fb-|-(14)-(14)-(14)--r12--10-12fb-10-10b-|------------|
G|-------|-------------------------------------|--11\-------|
D|-------|-------------------------------------|------------|
A|-------|-------------------------------------|------------|
E|-------|-------------------------------------|------------|

(Fill 2): with wah wah
e|-------------------------|
B|-------------------------|
G|----4fb---2~~~-----------|
D|------------------4\-----|
A|-------------------------|
E|-------------------------|

(Fill 3):
e|-------------------------|
B|-------------------------|
G|----(4)phbr4p2-----------|
D|-------------------------|
A|-------------------------|
E|-------------------------|


INTRO RHYTHM:
e|-------------|-------------|-------------|-------------|
B|-------------|-------------|-------------|-------------|
G|-------------|-------------|-------------|-------------|
D|-2-----------|-------------|-2-----------|-------------|
A|-0--2----4-4-|-----2-2-4---|-0--2----4-4-|-----2-2-4---|
E|----0--0-2-2-|---0-0-0-2-0-|----0--0-2-2-|---0-0-0-2-0-|

(Fill2)
e|-------------|-------------|-------------|-------------|
B|-------------|-------------|-------------|-------------|
G|-------------|-------------|-------------|-------------|
D|-2-----------|-------------|-2-----------|-------------|
A|-0--2----4-4-|-----2-2-4---|-0--2----4-4-|-----2-2-4---|
E|----0--0-2-2-|---0-0-0-2-0-|----0--0-2-2-|---0-0-0-2-0-|

VERSE1:
e|-----------------|------------------|-----------------|---------------------|
B|-----------------|------------------|-----------------|---------------------|
G|-----------------|------------------|-----------------|---------------------|
D|-2---------------|------------------|-2---------------|---------------------|
A|-0--2----4-4-----|-------2-2-4------|-0--2----4-4-----|-----2-2-4-----------|
E|----0--0-2-2-----|---0---0-0-2--0---|----0--0-2-2-----|---0-0-0-2-0---------|
To night there's gonna be a jail break, somewhere in this town.
See, me and the boys-we don't like it, so we're gettin up n' go'in down.
Hid-in' low, lookin right to left, If you see us comin' i think its best.
to move away, Do you hear what i say, from un-der my breath?

CHORUS:
e|----------------------|-------------|----------------------|----------------|
B|----------------------|-------------|----------------------|----------------|
G|-4--------------------|--------4-4--|-4--------------------|------------4-4-|
D|-4-----------------2--|--------4-4--|-4-----------------2--|------------4-4-|
A|-2-----------------2--|--------2-2--|-2-----------------2--|------------2-2-|
E|-----------------0-0--|-------------|-----------------0-0--|----------------|

To night there's gonna be a jailbreak. Somewhere in the town. To-
e|-12fb-------------12~~|---------12fb|-----------------12~~~|-----------12fb-|
B|----------------------|-------------|----------------------|----------------|
G|----------------------|-------------|----------------------|----------------|
D|----------------------|-------------|----------------------|----------------|
A|----------------------|-------------|----------------------|----------------|
E|----------------------|-------------|----------------------|----------------|

e|----------------------|-------------|----------------------|----------------|
B|----------------------|-------------|----------------------|----------------|
G|-4--------------------|-------------|----------------------|----------------|
D|-4-----------------2--|-------------|--------2-------------|----------------|
A|-2-----------------2--|-------------|--0--4----------------|----------------|
E|-----------------0-0--|-------------|-----------4--0-2-----|----------------|

To night there's gonna be a jailbreak. So don't you be around-------.
e|-(14)r(13)---------12h|14p12-----------|----------------------|-------------|
B|----------------------|------12fb-12pfb|-12fbr12p10-12fb----10|---------10\-|
G|----------------------|----------------|-----------------11---|-------------|
D|----------------------|----------------|----------------------|-------------|
A|----------------------|----------------|----------------------|-------------|
E|----------------------|----------------|----------------------|-------------|

VERSE 2:
(Fill 1)
e|-------------|-------------|-------------|-------------|
B|-------------|-------------|-------------|-------------|
G|-------------|-------------|-------------|-------------|
D|-2-----------|-------------|-2-----------|-------------|
A|-0--2----4-4-|-----2-2-4---|-0--2----4-4-|-----2-2-4---|
E|----0--0-2-2-|---0-0-0-2-0-|----0--0-2-2-|---0-0-0-2-0-|

e|-------------|-------------|-------------|-------------|
B|-------------|-------------|-------------|-------------|
G|-------------|-------------|-------------|-------------|
D|-2-----------|-------------|-2-----------|-------------|
A|-0--2----4-4-|-----2-2-4---|-0--2----4-4-|-----2-2-4---|
E|----0--0-2-2-|---0-0-0-2-0-|----0--0-2-2-|---0-0-0-2-0-|

e|-----------------|------------------|-----------------|---------------------|
B|-----------------|------------------|-----------------|---------------------|
G|-----------------|------------------|-----------------|---------------------|
D|-2---------------|------------------|-2---------------|---------------------|
A|-0--2----4-4-----|-------2-2-4------|-0--2----4-4-----|-----2-2-4-----------|
E|----0--0-2-2-----|---0---0-0-2--0---|----0--0-2-2-----|---0-0-0-2-0---------|
To night there's gonna be trouble-- Some of us won't survive.
See, the boys and me mean business. Bustin' out dead or alive.
I can hear hound dogs on my trail. All hell breaks loose alarms and sirens wail
Like a game, if you lose Go to jail!!!!!

CHORUS:
e|----------------------|-------------|----------------------|----------------|
B|----------------------|-------------|----------------------|----------------|
G|-4--------------------|--------4-4--|-4--------------------|------------4-4-|
D|-4-----------------2--|--------4-4--|-4-----------------2--|------------4-4-|
A|-2-----------------2--|--------2-2--|-2-----------------2--|------------2-2-|
E|-----------------0-0--|-------------|-----------------0-0--|----------------|

To night there's gonna be a jailbreak. Somewhere in the town. To-
e|-12fb-------------12~~|---------12fb|-----------------12~~~|-----------12fb-|
B|----------------------|-------------|----------------------|----------------|
G|----------------------|-------------|----------------------|----------------|
D|----------------------|-------------|----------------------|----------------|
A|----------------------|-------------|----------------------|----------------|
E|----------------------|-------------|----------------------|----------------|

e|----------------------|-------------|----------------------|----------------|
B|----------------------|-------------|----------------------|----------------|
G|-4--------------------|-------------|----------------------|----------------|
D|-4-----------------2--|-------------|--------2-------------|----------------|
A|-2-----------------2--|-------------|--0--4----------------|----------------|
E|-----------------0-0--|-------------|-----------4--0-2-----|----------------|

To night there's gonna be a jailbreak. So don't you be around-------. To
e|-(14)r(13)---------12h|14p12-----------|-------------------------|----------|
B|----------------------|----------------|-12fb(14)-10-12fbr13-----|-----17fb-|
G|----------------------|----------------|--------------------11-11|----------|
D|----------------------|----------------|-------------------------|----------|
A|----------------------|----------------|-------------------------|----------|
E|----------------------|----------------|-------------------------|----------|

e|----------------------|-------------|----------------------|----------------|
B|----------------------|-------------|----------------------|----------------|
G|-4--------------------|--------4-4--|-4--------------------|------------4-4-|
D|-4-----------------2--|--------4-4--|-4-----------------2--|------------4-4-|
A|-2-----------------2--|--------2-2--|-2-----------------2--|------------2-2-|
E|-----------------0-0--|-------------|-----------------0-0--|----------------|

nights there's gonna be trouble i'm gonna find myself in To
e|----------------------|-------------|----------17----------|----------------|
B|--(17)-------17~~~----|-------17fb--|-hold-------(19)r17---|----------------|
G|----------------------|-------------|----------------------|----------------|
D|----------------------|-------------|----------------------|----------------|
A|----------------------|-------------|----------------------|----------------|
E|----------------------|-------------|----------------------|----------------|

e|----------------------|-------------|----------------------|----------------|
B|----------------------|-------------|----------------------|----------------|
G|-4--------------------|--------4-4--|-4--------------------|------------4-4-|
D|-4-----------------2--|--------4-4--|-4-----------------2--|------------4-4-|
A|-2-----------------2--|--------2-2--|-2-----------------2--|------------2-2-|
E|-----------------0-0--|-------------|-----------------0-0--|----------------|

night there's gonna be trouble, so go hame and stay with a friend.
e|----------------------|-------------|----------------------|----------------|
B|-17fb---------------17|~~~----------|----------------------|----------------|
G|----------------------|-------------|----------------------|----------------|
D|----------------------|-------------|-------2--------------|----------------|
A|----------------------|-------------|-0--4-----------------|----------------|
E|----------------------|-------------|----------4--0--2~~~--|----------------|

BRIDGE:
pm---------------¬ pm-----------¬
e|----------------|--------------------|------------|--------|
B|----------------|--------------------|------------|--------|
G|----------------|--------------------|------------|--------|
D|------2---------|--------------------|-----2------|--------|
A|-0-4------------|--------------------|-0-4--------|--------|
E|--------4---0-2-|------------------0-|-------4-0-2|------0-|
you know its safe now

pm---------------¬
e|----------------|--------------------|------------|--------|
B|----------------|--------------------|------------|--------|
G|----------------|--------------------|------------|--------|
D|------2---------|--------------------|-----2-----4|--------|
A|-0-4------------|--------------------|-0-4-------4|--------|
E|--------4---0-2-|------------------0-|-------4-0-2|-----10\|
Break Out!!!!!!!!

e|------------------|---------------|-----------------|--------------|
B|------------------|---------------|-----------------|--------------|
G|------------------|---------------|-----------------|--------------|
D|--------6-----7---|---8-----9-----|-------6-----7---|---8----9-----|
A|-7-7-7----7-7---7-|-7---7-7---7-7-|-7-7-7---7-7---7-|-7---7-7--7-7-|
E|------------------|-------------0-|-----------------|------------0-|

e|------------------|---------------|-----------------|--------------|
B|------------------|---------------|-----------------|--------------|
G|------------------|---------------|-----------------|--------------|
D|--------6-----7---|---8-----9-----|-------6-----7---|---8----9-----|
A|-7-7-7----7-7---7-|-7---7-7---7-7-|-7-7-7---7-7---7-|-7---7-7--7-7-|
E|------------------|-------------0-|-----------------|------------0-|

e|-----------------|---------------|-----------------|---------------|
B|-----------------|---------------|-----------------|---------------|
G|-----------------|---------------|-----------------|---------------|
D|-----------------|---------------|-----------------|---------------|
A|-0-0-0-4-0-0-5-0-|-0-6-0-0-7-0-0-|-0-0-0-4-0-0-5-0-|-0-6-0-0-7-0-0-|
E|-----------------|---------------|-----------------|---------------|

e|------------------|---------------|-----------------|----------------|
B|------------------|---------------|-----------------|----------------|
G|------------------|---------------|-----------------|--------------6-|
D|--------6-----7---|---8-----9-----|-------6-----7---|---8----9-------|
A|-7-7-7----7-7---7-|-7---7-7---7-7-|-7-7-7---7-7---7-|-7---7-7--7-7---|
E|------------------|-------------0-|-----------------|----------------|

e|-------------------|------|
B|-------------------|--9~~~|
G|------7------8-----|--9~~~|
D|-------------------|------|
A|--7-7---7-7----7-7-|------|
E|-------------------|------|

VERSE 3:...getting tired now...
e|-------------|-------------|-------------|-------------|
B|-------------|-------------|-------------|-------------|
G|-------------|-------------|-------------|-------------|
D|-2-----------|-------------|-2-----------|-------------|
A|-0--2----4-4-|-----2-2-4---|-0--2----4-4-|-----2-2-4---|
E|----0--0-2-2-|---0-0-0-2-0-|----0--0-2-2-|---0-0-0-2-0-|
(fill 3)
e|-------------|-------------|-------------|-------------|
B|-------------|-------------|-------------|-------------|
G|-------------|-------------|-------------|-------------|
D|-2-----------|-------------|-2-----------|-------------|
A|-0--2----4-4-|-----2-2-4---|-0--2----4-4-|-----2-2-4---|
E|----0--0-2-2-|---0-0-0-2-0-|----0--0-2-2-|---0-0-0-2-0-|

e|-----------------|------------------|-----------------|---------------------|
B|-----------------|------------------|-----------------|---------------------|
G|-----------------|------------------|-----------------|---------------------|
D|-2---------------|------------------|-2---------------|---------------------|
A|-0--2----4-4-----|-------2-2-4------|-0--2----4-4-----|-----2-2-4-----------|
E|----0--0-2-2-----|---0---0-0-2--0---|----0--0-2-2-----|---0-0-0-2-0---------|
To night there's gonna be a break out. into the city sones.........
DOn't you dare try and stop us no one could for long....
Search light on my trail To nights the nigth all systems fail.
Good lookin' female!!!!!! Come here!!!!

CHORUS:
e|----------------------|-------------|----------------------|----------------|
B|----------------------|-------------|----------------------|----------------|
G|-4--------------------|--------4-4--|-4--------------------|------------4-4-|
D|-4-----------------2--|--------4-4--|-4-----------------2--|------------4-4-|
A|-2-----------------2--|--------2-2--|-2-----------------2--|------------2-2-|
E|-----------------0-0--|-------------|-----------------0-0--|----------------|

To night there's gonna be a jailbreak. Somewhere in the town. To-
e|-12fb-------------12~~|---------12fb|-----------------12~~~|-----------12fb-|
B|----------------------|-------------|----------------------|----------------|
G|----------------------|-------------|----------------------|----------------|
D|----------------------|-------------|----------------------|----------------|
A|----------------------|-------------|----------------------|----------------|
E|----------------------|-------------|----------------------|----------------|

e|----------------------|-------------|----------------------|----------------|
B|----------------------|-------------|----------------------|----------------|
G|-4--------------------|-------------|----------------------|----------------|
D|-4-----------------2--|-------------|--------2-------------|----------------|
A|-2-----------------2--|-------------|--0--4----------------|----------------|
E|-----------------0-0--|-------------|-----------4--0-2-----|----------------|
To night there's gonna be a jailbreak. So don't you be around-------. To

e|-(14)r(13)---------12h|14p12-----------|-------------------------|----------|
B|----------------------|----------------|-12fb(14)-10-12fbr13-----|-----17fb-|
G|----------------------|----------------|--------------------11-11|----------|
D|----------------------|----------------|-------------------------|----------|
A|----------------------|----------------|-------------------------|----------|
E|----------------------|----------------|-------------------------|----------|

e|----------------------|-------------|----------------------|----------------|
B|----------------------|-------------|----------------------|----------------|
G|-4--------------------|--------4-4--|-4--------------------|------------4-4-|
D|-4-----------------2--|--------4-4--|-4-----------------2--|------------4-4-|
A|-2-----------------2--|--------2-2--|-2-----------------2--|------------2-2-|
E|-----------------0-0--|-------------|-----------------0-0--|----------------|

nights there's gonna be trouble i'm gonna find myself in To
e|----------------------|-------------|----------17----------|----------------|
B|--(17)-------17~~~----|-------17fb--|-hold-------(19)r17---|----------------|
G|----------------------|-------------|----------------------|----------------|
D|----------------------|-------------|----------------------|----------------|
A|----------------------|-------------|----------------------|----------------|
E|----------------------|-------------|----------------------|----------------|

e|----------------------|-------------|----------------------|----------------|
B|----------------------|-------------|----------------------|----------------|
G|-4--------------------|--------4-4--|-4--------------------|------------4-4-|
D|-4-----------------2--|--------4-4--|-4-----------------2--|------------4-4-|
A|-2-----------------2--|--------2-2--|-2-----------------2--|------------2-2-|
E|-----------------0-0--|-------------|-----------------0-0--|----------------|

night there's gonna be trouble, so go hame and stay with a friend.
e|----------------------|-------------|----------------------|----------------|
B|-17fb---------------17|~~~----------|----------------------|----------------|
G|----------------------|-------------|----------------------|----------------|
D|----------------------|-------------|-------2--------------|----------------|
A|----------------------|-------------|-0--4-----------------|----------------|
E|----------------------|-------------|----------4--0--2~~~--|----------------|

e|----------------------|-------------|----------------------|----------------|
B|----------------------|-------------|--12fb-12fbr12--10--12|--10~~~~~-------|
G|----------------------|-------------|----------------------|----------------|
D|----------------------|-------------|----------------------|----------------|
A|----------------------|-------------|----------------------|----------------|
E|----------------------|-------------|----------------------|----------------|

How To Play Thin Lizzy - Dancing In The Moonlight

Thin lizzy - Dancing in the moonlight

Tabs:Thin lizzy - Dancing in the moonlight

The song starts with a bass line with Scott Gorham in the back ground making a muted
so just put your palm and playing hand over the strings and strike downwards, then comes
guitar.

E---7---| Start off with this figure. Play along with the CD for timing.
B---8---|
G---7---|
D---9---|
A---7---|
E-------|

E---5---|
B---7---|
G---7---|
D---7---|
A---5---|
E-------|

E---3---|
B---5---|
G---5---|
D---5---|
A---3---|
E-------|

E-------|
B-------|
G-------|
D---5---|
A---5---|
E---3---|


When the last chord comes in this these lick layers over the top.

E---------------------|
B---12-13-12-13~-12---|
G---12-12-12-12--12---|
D---------------------|
A---------------------|
E---------------------|

Then repeat the first chords.

Again at the last chord this different lick over laps.

E-----------------|
B---17-15-13-12~--|
G---16-14-12-11---|
D-----------------|
A-----------------|
E-----------------|

Repeat the first chords.
Then layer this over the last one.

E-----------------|
B---12-13-15~-13--|
G---11-12-14--12--|
D-----------------|
A-----------------|
E-----------------|

Repeat but play the last chord on its own 3 times. then play the muted strum again.

then just repeat all of that 1 more time.
After that the guitar mimics the bass line.

E--------------------------------------------|
B--------------------------------------------|
G--------------------------------------------| X4
D--------------------------------------------|
A-------5-5-7--7-7-5-5-7-7---5-5-3--3-3-2-0--|
E---7-7-------------7-----7-7--------------3-|

Muted strum.
The backing for the solo is the same as a normal verse.

E-------------------------------------------------------------------------|
B---15b17--15bd17-12--15b17--15bd17-12--15b17-15-12-----------------------|
G----------------------------------------------------12-12-14-12-14b16-14-|
D--------------------------------------------------14---------------------|
A-------------------------------------------------------------------------|
E-------------------------------------------------------------------------|

E---------------------------------15--12--10--8-7-8--10--12--|
B------------------------------------------------------------|
G--12-14b16-----12--14-12---12----12--9---7---5-4-5---7--9---|
D----------12-14--14------14---------------------------------|
A------------------------------------------------------------|
E------------------------------------------------------------|

This is the hardest bit.

E------12-15-12--12--------------12-15-12--12--------------12-14-12--12------|
B--------------15--15-12-------12--------15--15-12-------12--------15--15-12-|
G-12b14-------------------12b14---------------------12b14--------------------|
D----------------------------------------------------------------------------|
A----------------------------------------------------------------------------|
E----------------------------------------------------------------------------|

E--------12-15-12--12--------|
B------12--------15--15-12---|
G-12b14----------------------|
D----------------------------|
A----------------------------|
E----------------------------|

E-------------------------------------------------------------15b17---15~-|
B------------------------------------------15-12-15b17-15-12--------------|
G--14-12--14-12------------------14-12--12~-------------------------------|
D-------14-----14---------------------14----------------------------------|
A-----------------14-12-10--14-12-----------------------------------------|
E-------------------------------------------------------------------------|

Just carry on with the chorus, (all the chords but without the licks.
Have fun!

Boys Are Back In Town Thin Lizzy

Tabs:Thin Lizzy`s "Boys are back in town"

Here are the tabs for Thin Lizzy`s "Boys are back in town"
I listened to a live version of this song and this is what I tabbed out.
Use the other tabs for this song and listen to the song while you try to learn it.



Intro-Riff (play 4 times)

A B D
|--------------------------------|
|-------------------------3------|
|-2------------------4----2------|
|-2---4-4-4-2---2-4--4----0------|
|-0-----------4------2-----------|
|--------------------------------|


Verse: Guitar One

|-----------------------------------------------------------|
|-----------------------------------------------------------|
|-----------------------------------------------------------|
|-------------------4---------------------------------------|
|-0--4-----------5-----------4-----2----------5-------------|
|-------------------------------2---------------------------|


Verse: Guitar Two

|-----------------------------------------------------------|
|-------5-----5--7--7--7--7--5-----4-4--4-4---7-7--7-7------|
|-------6-----6--7--6--6--6--6-----4-4--4-4---7-7--7-7------|
|-2--6--6--6--6--7--4--4--4--6--4--4-4--4-4---7-7--7-7------|
|-0-----------------------------4---------------------------|
|-------------------------------2---------------------------|


Verse: Guitar One

|-----------------------------------------------------------|
|-----------------------------------------------------------|
|-----------------------------------------------------------|
|-----------------3--------2--------------------------------|
|-0--4---------5-----------------2---------5----------------|
|-----------------------------2-----------------------------|


Verse: Guitar Two

|-----------------------------------------------------------|
|------5----5--7--6--6--6--5-----4-4--4-4---7-7--7-7--------|
|------6----6--7--5--5--5--4-----4-4--4-4---7-7--7-7--------|
|-2--6-6--6-6--7--3--3--3--2--4--4-4--4-4---7-7--7-7--------|
|-0---------------------------4-----------------------------|
|-----------------------------2-----------------------------|

Refrain Riff for both guitars:

A B D
|--------------------------------|
|-------------------------3------|
|-2------------------4----2------|
|-2------------------4----0------|
|-0------------------2-----------|
|--------------------------------|
The boys are back...


Lick after the first Refrain:

|-----------------|-----------------|------------------|-------------------------|
|-----------------|-----------------|------------------|-------------------------|
|--------6--6-----|--------6--6-----|---------6--9-----|---------6-7-7-7-7-6-----|
|--7-7p9-------7--|--7-7p9-------7--|--7--7p9-------7--|--7--7p9-------------9---|
|-----------------|-----------------|------------------|-------------------------|
|-----------------|-----------------|------------------|-------------------------|


|---------------------|-----------------|----------------------------|
|---------------------|-----------------|----------------------------|
|--6-----------6-6----|---------6--9----|-------6--9--7--6-----------|
|----7---7-7p9-----7--|--7--7p9------7--|-7-7p9-------------7--------|
|---------------------|-----------------|----------------------9--7--|
|---------------------|-----------------|----------------------------|


Part after the 2nd Refrain: Guitar One

G D C# F# B D
|------------------------------------------------------------------------------------|
|--8-8-8-8-8-8-8-8-8-8-8-8-----------------------------------7--------------3--------|
|--7-7-7-7-7-7-7-7-7-7-7-7--7-7-7-7-7-7-7-7-7-7-7-7---6------6----4---------2--------|
|--5-5-5-5-5-5-5-5-5-5-5-5--7-7-7-7-7-7-7-7-7-7-7-7---6------4----4---------0--------|
|---------------------------5-5-5-5-5-5-5-5-5-5-5-5---4-----------2------------------|
|------------------------------------------------------------------------------------|

F#
|-------------------------------------------|
|-------------------------------------------|
|-------------------------------------------|
|--4----------------------------------------|
|--4----------------------------------------|
|--2------2-2-2-2-2-2-2-2-2-2-2-2-2-2-2-2---|

Part after the 2nd Refrain: Guitar Two

G D C# F# B D
|------------------------------------------------------------------------------------|
|--8-8-8-8-8-8-8-8-8-8-8-8-----------------------------------7----4-4-4-4---7-7-7-7--|
|--7-7-7-7-7-7-7-7-7-7-7-7--7-7-7-7-7-7-7-7-7-7-7-7---6------6----4-4-4-4---7-7-7-7--|
|--5-5-5-5-5-5-5-5-5-5-5-5--7-7-7-7-7-7-7-7-7-7-7-7---6------4----4-4-4-4---7-7-7-7--|
|---------------------------5-5-5-5-5-5-5-5-5-5-5-5---4------------------------------|
|------------------------------------------------------------------------------------|

F#
|-------------------------------------------|
|-------------------------------------------|
|-------------------------------------------|
|--4----------------------------------------|
|--4----------------------------------------|
|--2------2-2-2-2-2-2-2-2-2-2-2-2-2-2-2-2---|

Part before the great Final: Play Twice
D E
|--------|--------------|--------------|------------------------------|
|--------|--------------|--------------|--3--------5-5-5-5-5-5--------|
|--9-----|--------------|--------------|--2--------4-4-4-4-4-4--------|
|-----7--|--5--7--9--4--|--5--7--9--4--|--0--------2-2-2-2-2-2--------|
|--------|--------------|--------------|------------------------------|
|--------|--------------|--------------|------------------------------|


The end of the song:

|-----------------|-----------------|------------------|-------------------------|
|-----------------|-----------------|------------------|-------------------------|
|--------6--6-----|--------6--6-----|---------6--9-----|---------6-7-7-7-7-6-----|
|--7-7p9-------7--|--7-7p9-------7--|--7--7p9-------7--|--7--7p9-------------9---|
|-----------------|-----------------|------------------|-------------------------|
|-----------------|-----------------|------------------|-------------------------|


|---------------------|-----------------|----------------------------|
|---------------------|-----------------|----------------------------|
|--6-----------6-6----|---------6--9----|-------6--7--7--7--7--6-----|
|----7---7-7p9-----7--|--7--7p9------7--|-7-7p9-------------------9--|
|---------------------|-----------------|----------------------------|
|---------------------|-----------------|----------------------------|

|---------------------|-----------------|----------------------------|
|---------------------|-----------------|----------------------------|
|--6-----------6-6----|---------6--9----|-------6--7--7--7--7--6-----|
|----7---7-7p9-----7--|--7--7p9------7--|-7-7p9-------------------9--|
|---------------------|-----------------|----------------------------|
|---------------------|-----------------|----------------------------|

|---------------------|-----------------|----------------------------|
|---------------------|-----------------|----------------------------|
|--6-----------6-6----|---------6--9----|-------6--7--7--7--7--6-----|
|----7---7-7p9-----7--|--7--7p9------7--|-7-7p9-------------------9--|
|---------------------|-----------------|----------------------------|
|---------------------|-----------------|----------------------------|


|--------|----------------|-----------------|----------------------------|
|--------|----------------|-----------10----|-----------7-7-7-7----------|
|--9--6--|-6--6p7p9--9--6-|-6--6p7p9------6-|-6--6p7p9-----------9--7----|
|--------|----------------|-----------------|----------------------------|
|--------|----------------|-----------------|----------------------------|
|--------|----------------|-----------------|----------------------------|


|--------|--------------------|--------------9----|----------------------------------|
|--10----|----------10--10----|----------10-------|----------10--12-12-12-12-10------|
|------9-|--9--9p11---------9-|-9--9p11---------9-|-9--9p11----------------------11--|
|--------|--------------------|-------------------|----------------------------------|
|--------|--------------------|-------------------|----------------------------------|
|--------|--------------------|-------------------|----------------------------------|


|--9-----|-------------9--9------|-------------9--12----|-----------9--10-10-10-10-9----|
|----10--|--10--10p12--------10--|--10--10p12--------10-|-10--10p12------------------12-|
|--------|-----------------------|----------------------|-------------------------------|
|--------|-----------------------|----------------------|-------------------------------|
|--------|-----------------------|----------------------|-------------------------------|
|--------|-----------------------|----------------------|-------------------------------|
|--------|-----------------------|----------------------|-------------------------------|

|--------|---------------------|---------------17----|-------------14-14-14-14----------|
|-17--14-|-14-14p15p17--17--14-|--14--14p15p17----14-|-14-14p15p17-------------17-15----|
|--------|---------------------|---------------------|----------------------------------|
|--------|---------------------|---------------------|----------------------------------|
|--------|---------------------|---------------------|----------------------------------|
|--------|---------------------|---------------------|----------------------------------|


A
|-14-14-14-14--------|-14-14-14-14--------|------|
|-------------17-15--|-------------17-15--|------|
|--------------------|--------------------|--2---|
|--------------------|--------------------|--2---|
|--------------------|--------------------|--0---|
|--------------------|--------------------|------|

Thin Lizzy-Whiskey in the jar

Tabs: Whiskey in the Jar - Thin Lizzy

Band:Thin Lizzy
Song: Whiskey in the Jar
Album:Vagabonds


Intro

|-8---8--8\7--5--7----7--7\5----------------------|
|----------------------------8--8---8\5-----------|
|----------------------------------------7\5------|
|---------------------------------------------7-6-|
|-------------------------------------------------|
|-------------------------------------------------|


Intro cont

|---------------------------------------------------------|
|---------------5/8\5-------------------------------------|
|-----------4/7-------7-9--7--6--5------------------------|
|-5--7\5/7--------------------------9-7-6-5---------------|
|-------------------------------------------7-6-5---------|
|-------------------------------------------------8-7-6\5-|


Inturlude 1 end of inturlude

|----------------------------| |-----------------------|
|---------7-8--------------8-| |-----------3---------0-|
|-7-7-7/9------9--11--7--9---| |-0-0-0-2-0---0-2-4-0---|
|----------------------------| |-----------------------|
|----------------------------| |-----------------------|
|---------------------------x4 |--------------------- x1


Verses...

G Em

|-----------------------------------------------------------------|
|-3---3---3---5---3---0---0---0-3---5---5---5---7\5----0---0----0-|
|--0---0---0---0---0---0---0---------0---0---0------0--0-0-0--0---|
|-----------------------------------------------------------------|
|-----------------------------------------------------------------|
|-----------------------------------------------------------------|

C G

|-----------------------------------------------------------------|
|-5--5--5---7---8---8-8-7---5--3--3---5---8---8-5-3---3-3-3-3-3-3-|
|--0--0--0---0--0-0-0-0-0-0-0-------0--0--0-0-0---0-0-0-0-0-0-0-0-|
|-----------------------------------------------------------------|
|-----------------------------------------------------------------|
|-----------------------------------------------------------------|

G Em

|----------------------------------------------------------------------|
|-3---3---3--5--3---3---0---0---0-3--5---5---5---7---5---0-0-0-0-0-0-3-|
|-0-0-0-0-0--0--0-0-0-0-0-0-0-0-0----0-0-0-0-0-0-0-0-0-0-0-0-0-0-0-0---|
|----------------------------------------------------------------------|
|----------------------------------------------------------------------|
|----------------------------------------------------------------------|

C G

|------------------------------------------------------------------|
|-5-5-5--7---8---8-8-7--5-3-3-----5--8--8--7--5--3--3---3---3----3-|
|-0-0-0--0-0-0-0-0-0-0------0--0--0--0--0--0-----0---0---0---0---0-|
|------------------------------------------------------------------|
|------------------------------------------------------------------|
|------------------------------------------------------------------|



Chorus

D C

|--------------------------------------------------------------|
|---------------------------5-5--5--5--------------------------|
|-7--2-2-2-2-2-4-4-4----5-5---5--5--5---8---8---8---8---8--8---|
|-0--0-0-0-0-0-0-0-0--0---------------9---9---9---9---9--9---9-|
|--------------------------------------------------------------|
|--------------------------------------------------------------|

C G

|--------------------------------------------------|
|-8\7-10--8-13-13-13--3---0---0----------0-0-0-0-0-|
|-----------14-14-14---0---0---0--2-2--0-0-0-0-0-0-|
|--------------------------------------------------|
|--------------------------------------------------|
|--------------------------------------------------|


Interlude 2

Em G

|-------------------------------------------------------------|
|-------------------------------------------------------------|
|-0--0--0-0-0--0--0-0-0-0-0-0--0-0-0-0-0-0-0-0--0-0-0-0-0-0-0-|
|-0--0--0------0--0-----0-0-0--0-----0-0-----0--0-------------|
|-------------------------------------------------------------|
|-------------------------------------------------------------|

Em G

|--------------------------------------------------------------------|
|--------------------------------------------------------------------|
|--------------------------------------------------------------------|
|0--0---0-0-0-0---0-0-0-0-0-0-0-0-0-0---0-0-0-0-0-0-0-0-0-0-0-0-0-0-0|
|0-0--0-0-----0-0-0-0-0-----0---0-0-0-0-0-0-----0-0-0-0-0-0---0-0-0-0|
|--------------------------------------------------------------------|

Em

|--------------------------------------------7--8-|
|--------------------------------------------x----|
|-0---0--0--0--0--0-0-0--0---0-0-0-0--0--0-0-0--0-|
|-0---0--0--0--0----0----0---0-0---0--0--0---0----|
|-------------------------------------------------|
|-------------------------------------------------|


Solo(thin lizzy)


|-10-8-7--7-8-7----7-----------7-8b-------12-12---12-14b-12----|
|---------------10---10-8-8-10------12-15------15-----------15-|
|--------------------------------------------------------------|
|--------------------------------------------------------------|
|--------------------------------------------------------------|
|--------------------------------------------------------------|

Solo Cont

|-12---12-------------------------------------------|
|---15---12-15-13-12-10-------13-12-10--------------|
|-----------------------12-10----------12-10-9----5-|
|----------------------------------------------12---|
|---------------------------------------------------|
|---------------------------------------------------|

Solo Cont

|-------------------7-8-10-7-8-7----7------------7-8b-|
|--------------------------------10--10-8-7-8-10------|
|-4b-4b-4b-4b-4b-4b-----------------------------------|
|-----------------------------------------------------|
|-----------------------------------------------------|
|-----------------------------------------------------|

Solo Cont

|-7-8-12-12----12-14b--12----12---12------------------------|
|-----------15------------15---15----12-15-13-12-10---------|
|---------------------------------------------------12-10-9-|
|-----------------------------------------------------------|
|-----------------------------------------------------------|
|-----------------------------------------------------------|

Solo Cont

|-----------------------------------------------------------|
|------------13----15----17---12--------13-12-10-10-8-10-12-|
|-9-10-12-10----12----12---12-12---------x--x--x--x-x--x--x-|
|-----------------------------12--12/14-14-12-10-10-8-10-12-|
|-----------------------------------------------------------|
|-----------------------------------------------------------|

Solo Cont

|-------3-5b-5b--5-3-----3-5-3-------3-5-3---------------------|
|-3-3-5--------------5-3-------3-5-3-------5-3-2-1-3-1/5-3-4/6-|
|-0-0----------------------------------------------------------|
|--------------------------------------------------------------|
|--------------------------------------------------------------|
|--------------------------------------------------------------|

Solo Cont

|---------------------12----8---3-3------------------15-17-15-|
|-5b--6-7-8--6-8/10-8----8-10-8-5-3---13-15b-15b-15b----------|
|-----------------------------------5-------------------------|
|-------------------------------------------------------------|
|-------------------------------------------------------------|
|-------------------------------------------------------------|

Solo Cont THIS part wood help to have 2nd guitar


|----------15-17-15---------2-3---2-----3----------2-3---2---|
|-17-15-17----------3-3-3-5---5-5---3-5----3-3-3-5---5-5---3-|
|-------------------4-4-4-5-7---5-7-4-5-7--4-4-4-5-7---5-7-4-|
|------------------------------------------------------------|
|------------------------------------------------------------|
|------------------------------------------------------------|

Solo End
|---3--------3---2-----3--------------------------------|
|-5----3-3-3-5-5---3-5--------------3-------------------|
|-5-7--4-4-4---5-7-4-5-7---0-0-0-2b---0-2-0 -2b-0-0-0-0-|
|-------------------------------------------------------|
|-------------------------------------------------------|
|-------------------------------------------------------|


Guess il call this the outro

|-------------------------------------------------|
|-------------------------------------------------|
|-0--0--0--0--0--0--0--0--0--0--0--0--0--0--0--0--|
|---0-0--0--0--0--0--0--0--0--0--0--0--0--0--0--0-|
|-------------------------------------------------|
|-------------------------------------------------|


|-----------------------3-|
|-----------3-------------|
|-0-0-0-2-4---0-2-0-2-4---|
|-------------------------|
|-------------------------|
|-------------------------|

Gary Moore - Walking by myself

Tabs: Gary Moore - Walking by myself

                       WALKING BY MYSELF - GARY MOORE
Written by Jimmy Rodgers




Intro/ main riff (Play twice) (end riff)

e|----------------------------|----------------------------|
B|----------------------------|----------------------------|
G|----------------------------|----------------------------|
D|----------------------------|----------------------------|
A|----5-----5--7\-------------|----------------------------|
E|-7-----7--------------------|----------------------------|



co
e|----------------------------|----------------------------|
B|----------------------------|----------------------------|
G|----------------------------|----------------------------|
D|----------------------------|----------------------------|
A|----5-----5--7--------------|----------------------------|
E|-7-----7--------------------|----------------------------|
You know I love you


co
e|----------------------------|----------------------------|
B|----------------------------|----------------------------|
G|----------------------------|----------------------------|
D|----------------------------|----------------------------|
A|----5-----5--7--------------|----------------------------|
E|-7-----7--------------------|----------------------------|
you know its true


co
e|----------------------------|----------------------------|
B|----------------------------|----------------------------|
G|----------------------------|----------------------------|
D|----------------------------|----------------------------|
A|----5-----5--7--------------|----------------------------|
E|-7-----7--------------------|----------------------------|
give you all my love babe


co E9
e|----------------------------|----------------------------|
B|----------------------------|------------7--7------------|
G|----------------------------|------------7--7------------|
D|----------------------------|------------6--6------------|
A|----------------------------|------------7--7------------|
E|-5------7-----5-----3-------|----------------------------|
what more can I do


Verse:
E5 E6 E5 E6 E5 E6 E5 E6
e|-------------------------|-------------------------|
B|-------------------------|-------------------------|
G|-------------------------|-------------------------|
D|-------------------------|-------------------------|
A|-2--2--4-----2--2--4-----|-2--2--4-----2--2--4-----|
E|-0--0--0-----0--0--0-----|-0--0--0-----0--0--0-----|
Walking by myself



E5 E6 E5 E6
e|-------------------------|-------------------------|
B|-------------------------|-------------------------|
G|-------------------------|-------------------------|
D|-------------------------|-------------------------|
A|-2--2--4-----2--2--4-----|-------------------------|
E|-0--0--0-----0--0--0-----|-0----h4-----5-----6-----|
I hope you understand


(verse end)
A5 A6 A5 A6 B5 B6 B5 B6
e|-------------------------|-------------------------|
B|-------------------------|-------------------------|
G|-------------------------|-------------------------|
D|-2--2--4-----2--2--4-----|-4--4--6-----4--4--6-----|
A|-0--0--0-----0--0--0-----|-2--2--2-----2--2--2-----|
E|-------------------------|-------------------------|
I just want to be your lovin' man


Turnround: (End of turnaround)

e|-------------------------|-------------------------|
B|-------------------------|-------------------------|
G|-------------------------|-------------------------|
D|-------------------------|-------------------------|
A|-------------------------|-------5-----------------|
E|-0-----4-----5-----6-----|-7--------7--------------|




2nd verse:
I love you
Yes I love you with my heart and soul
I would'nt mistreat you
For my weight in gold




(played over the chords from the verse)

E5 E5 E6 etc..
e|------------------------------------------|--------------------------------|
B|------------------------------------------|--------------------------------|
G|-14b(16)-(16)-(16)--12-----14-------12----|-14b(16)-(16)-12------14--------|
D|------------------------------14----------|--------------------------14----|
A|------------------------------------------|--------------------------------|
E|------------------------------------------|--------------------------------|

Ph MU----| Ph Ph
e|-------------------------------------|--------------------------------|
B|-------------------------------------|--------------------------------|
G|--7-----------7-----------7----------|-7------------------------------|
D|-----9--8--7-----9--8--7-----9--8--7-|---9--8--7--5--7--7p5--7p5------|
A|-------------------------------------|----------------------------7p5-|
E|-------------------------------------|--------------------------------|
Woo

* Mute top E with R.H. to prevent accidental notes
*
e|--------------------------|--------------------------------------------------
-|
B|-----------------------0--|-h4p0-h4p0-h4p0-h4p0-h4p0-h4p0-h5p0-h5p0-h5p0-h7p0
-|
G|--------------------------|--------------------------------------------------
-|
D|-----5----5~~~~-----------|--------------------------------------------------
-|
A|-7-------7----------------|--------------------------------------------------
-|
E|--------------------------|--------------------------------------------------
-|

Ph
e|----12-------12---------------------------|--------------------------------|
B|----15b(17)------12-----------------------|--------------------------------|
G|---------------------12h14p12------14-----|-12-----------------------------|
D|-------------------------------14------14-|-------14-----------------------|
A|------------------------------------------|-----------14~~~~~--------------|
E|-0----------------------------------------|--------------------------------|
Keep on walking


e|-----------------------------------------------|---------------------------|
B|-/15-15-15-14/15-15-15-14/15-15-15-14/15-15-15-|---------------------------|
G|-/16-16-16-15/16-16-16-15/16-16-16-15/16-16-16-|-12------------------------|
D|-----------------------------------------------|-------14~~~~--------------|
A|-----------------------------------------------|---------------------------|
E|-----------------------------------------------|---------------------------|

CO CO
e|-----------------------------------------------|-19b(22)~----19--19b(22)-19-|
B|-/15-15-15-14/15-15-15-14/15-15-15-14/15-15-15-|----------------------------|
G|-/16-16-16-15/16-16-16-15/16-16-16-15/16-16-16-|----------------------------|
D|-----------------------------------------------|----------------------------|
A|-----------------------------------------------|----------------------------|
E|-----------------------------------------------|----------------------------|


e|-19b(22)--------17h20p17----------------17-----------------------------|
B|-------------------------20p17------17------20b(22)~~~\----------------|
G|--------------------------------19-------------------------------------|
D|-----------------------------------------------------------------------|
A|-----------------------------------------------------------------------|
E|-----------------------------------------------------------------------|


e|-15b17----12h15-------------12h14p12----15------------------------------|
B|----------------15p12h15h12----------12----15p12------12----12-15b(17)~~|
G|-------------------------------------------------15------15-------------|
D|------------------------------------------------------------------------|
A|------------------------------------------------------------------------|
E|------------------------------------------------------------------------|


e|-------12-------------------------------------------------------|
B|-~~--------15--12-----------------------------------------------|
G|-------------------14p12------14------12------------------------|
D|--------------------------14------14-----14--12-----------------|
A|-------------------------------------------------14--12--13--14-|
E|----------------------------------------------------------------|




Gary repeats the lyrics "I just want, to be you lovin'" over A B chords
before he finishes "To be your lovin' man" which would be over the B chord
if the band had continued playing. Finalally he finishes with a lick in E
around the 12th fret.



Messages les plus consultés