Tabs: Still Got The Blues - Gary Moore

************************************************************
song: STILL GOT THE BLUES 1990, UK
Artist: Moore G.

intro

lead guitar

w. distortion

)1/2 )1/2_
/ / )
E------------------------------------------|
B----15-17-17----17------17-15vvvvvvv15/---|
G-14---------------------------------------|
D------------------------------------------|
A------------------------------------------|
E------------------------------------------|

)f )f_
/ / )
E------------------------------------------|
B-13-15-15----15---15--13vvvvvvvv13/-------|
G------------------------------------------|
D------------------------------------------|
A------------------------------------------|
E------------------------------------------|

)f )f_ )1/2
/ / ) /
E---------------------------------------------------10/--|
B-10-12-13—13----13---13--12vvvvvvv-10--------------10/--|
G---------------------------------------12--12------10/--|
D--------------------------------------------------------|
A--------------------------------------------------------|
E--------------------------------------------------------|



VERSE 1

Guitar II

No dist.


(*1)________________________________________________________|
E---------|-----1-----------1-----------0------------0-----||
B---------|---1---1-------1---1-------0---0--------1---1---||
G---------|-2-------2---2-------2---0-------0----2-------2-||
D-----2-0-|------------------------------------3-----------||
A-0-3-----|-----------------------3------------------------||
E---------|-----------3------------------------------------||


e--------1--------------0-------------------------------|
b------3---3----------0---0----------1-------1-------1--|
g----2-------2------1-------1------2-------2-------2----|
d-------------------------------------------------------|
a--2-----------------------------0-------2-------3------|
e----------------0--------------------------------------|


repeat (*1) and play this:

E--------1--------------1-------------|----|
B------3---3----------3---3-----------|----|
G----2-------2------2-------2---------|----|
D-------------------------------------|----|
A--2--------------2-------------------|-2--|
E-------------------------------------|-0--|(X13)
|_________|

chorus 1

play this chords:

E--5--7--5--7--8---7------|
B--5--8--5--8--10--9------|
G--5--7--5--7--8---7------|
D--7--9--7--9--10--9---7--|
A--7--7--7--7--8---7---7--|
E--5--7--5--7--8---7---5--|



verse 2

Lead guitar with distortion
)1/2
/ )
E-------------------------3-3vvv------------------5--------------|
B---------------------3/5-----------------------------8----------|
G--------------------------------------------------------7---7-5-|
D---------------------------------------------------------------7|
A----------------------------------------------------------------|
E----------------------------------------------------------------|
used to be so easy ..to fall in love again but

)1/2 1/2 )1/2
/ ) / / )
E----------------------------------------------------------------|
B-------------------------------------------------8--------------|
G---------------------7-----7--5---------------------7--5h7p5----|
D------------------6--------------7---------------------------7--|
A----------------------------------------------------------------|
E----------------------------------------------------------------|
I found in the hard way it's a road that leads to pain, i found

that love was more than

)1/2 )f )f
/ / /
E-----------------------------------10---------------------------|
B----------10-14-14--------------------10h13p10-----------15--15/|
G------------------------------------------------13--------------|
D----------------------------------------------------------------|
A----------------------------------------------------------------|
E----------------------------------------------------------------|
just a game, you're playin' to win, but you'll lose just same


chorus 2

guitar II, the same chords like the chorus 1.

lead guitar chorus 2 end:

)1/2___
/ )
E------------------------------------------------|
B------------------------------------------------|
G----------------------7-------7----5------------|
D-------------------------------------7-7-7------|
A------------------------------------------------|
E------------------------------------------------|
got the blues for you...


Bridge, lead guitar.

)f___ )f )f__
/ ) / / )
E-----------------------------------------------------------------------------|
B---13-----13----10-----13---13----13vvvvvvvvvvv/-----------------------------|
G-----------------------------------------------------------------------------|
D-----------------------------------------------------------------------------|
A-----------------------------------------------------------------------------|
E-----------------------------------------------------------------------------|
face... ...to be


solo 1, lead guitar:

)1/2 )1/2_
/ / )
E------------------------------------------|
B----15-17-17----17------17-15vvvvvvv15/---|
G-14---------------------------------------|
D------------------------------------------|
A------------------------------------------|
E------------------------------------------|

)f )f_
/ / )
E------------------------------------------|
B-13-15-15----15---15--13vvvvvvvv13/-------|
G------------------------------------------|
D------------------------------------------|
A------------------------------------------|
E------------------------------------------|

)f )f__
/ / )
e--------------------------------------------------------------|
B--10--12--13--13--13----13--12vvv--10------10v-12v-13vvvv/----|
G---------------------------------------12---------------------|
D--------------------------------------------------------------|
A--------------------------------------------------------------|
E--------------------------------------------------------------|

)1/2 )1/2_ )1/2_
/ / ) / )
E----------------------------15-------------------------|
B----15-17-17----17------17------17----17---15v/--------|
G-14--------------------------------------------------12|
D-------------------------------------------------------|
A-------------------------------------------------------|
E-------------------------------------------------------|

)f )f_ )f__
/ / ) / )
E---------------------13-------------------|
B-13-15-15----15---15-----15----15--13vv/--|
G------------------------------------------|
D------------------------------------------|
A------------------------------------------|
E------------------------------------------|

)f )f__ )f )f__
/ / ) / / )
e-------------------------------------------------10-----------|
B--10--12--13--13--13----13--10---13----13----13v----13--10----|
G--------------------------------------------------------------|
D--------------------------------------------------------------|
A--------------------------------------------------------------|
E--------------------------------------------------------------|

(very fast)
e20fb20b--17---------------------------------------------------17-------------|
B-----------20-17----------17-------------------------------17----17--19-17-17|
G-----------------19fb--------19fb------17----19-----17--19b---------------19-|
D------------------------------------------19-----19--------------------------|
A-----------------------------------------------------------------------------|
E-----------------------------------------------------------------------------|


e----------------------------------|
B----------------------------------|
G--19fb-17-19----17--19--19fbvvvvv-|
D-------------19-------------------|
A----------------------------------|
E----------------------------------|




chorus 3. so long...etc. though... etc.




solo 2 lead guitar:
)1/2 )1/2_
/ / )
E------------------------------------------|
B----15-17-17----17------17-15vvvvvvv15/---|
G-14---------------------------------------|
D------------------------------------------|
A------------------------------------------|
E------------------------------------------|
)f )f_
/ / )
E------------------------------------------|
B-13-15-15----15---15--13vvvvvvvv13/-------|
G------------------------------------------|
D------------------------------------------|
A------------------------------------------|
E------------------------------------------|

e-------------------------|
B-10--12--12b-13fb-15fbv/-|
G-------------------------|
D-------------------------|
A-------------------------|
E-------------------------|

)1/2______
/ )
E------------------------------------------------|
B----15-17-17-----------17--15vvvvvvv15/---------|
G-14------------------------------------------12-|
D------------------------------------------------|
A------------------------------------------------|
E------------------------------------------------|

)f )f_ )f__
/ / ) / )
E------------------------------------------|
B-13-15-15----15---15-16--15----15--13vv/--|
G------------------------------------------|
D------------------------------------------|
A------------------------------------------|
E------------------------------------------|

)f )f_ )1/2 )1/2
/ / ) / /
E----------------------------------------------|------------|
B-10-12-13—13----13---13--12vvvvvvv-10---------|10-10-------|
G---------------------------------------12--12-|------12----|
D----------------------------------------------|------------|
A----------------------------------------------|------------|(many times
E----------------------------------------------|------------|and fast)
|________________________|

)f_____
/ )
E--------10--12-12b12fb-12-12------12--15------------------------------|
B-10--13----------------------------------15b-15b---13-15----13-15x----|
G---------------------------------------------------------14-----------|
D----------------------------------------------------------------------|
A----------------------------------------------------------------------|
E----------------------------------------------------------------------|


e--------10-12fb----10-12----10-----------------10-----------------------|
B-10-13b------------------13----13-10----10--13----13b-12-----10h12p10/9-|
G-------------------------------------12---------------------------------|
D------------------------------------------------------------------------|
A------------------------------------------------------------------------|
E------------------------------------------------------------------------|

)f )f___ )f__
/ / ) / )
e-------------------------------|---------------------------------------------|
B-10---10----10-----------------|---------------------------------------------|
G-----------------9v-----5v/15v-|---------------------------------------------|
D-------------------------------|----------------------------------10-12-10-12|
A-------------------------------|-0--3--5----5-5-----(5)-8-12-10-12-----------|
E-------------------------------|---------------------------------------------|

e--------------------------------------------------------15fb-----------------|
b----------10-13--10-12v----10h12p10--------10-13-15fb---15fb---13-15fb-15fb--|
g-10----10---------------------------12---------------------------------------|
d----12-----------------------------------------------------------------------|
a-----------------------------------------------------------------------------|
e-----------------------------------------------------------------------------|

E----10----10-12p10-13p10-12p10-----10----------------------------------------|
B-13----13-----------------------13----13-12-10-9-12-10-9-10------------------|
G-------------------------------------------------------------9/7--7h9p7------|
D-----------------------------------------------------------------------10-9-7|
A-----------------------------------------------------------------------------|
E-----------------------------------------------------------------------------|

)f )f )f )f )f )f )
/ / / / / / /
E-----------17----------------------------------------17--20-20-20-20-20-20-20|
B-------20fb---20-17------17------------------17--19--------------------------|
G--------------------19fb-----19fb-17------19---------------------------------|
D---/19---------------------------------19------------------------------------|
A-----------------------------------------------------------------------------|
E-----------------------------------------------------------------------------|


E-17h20--17h19p17-------------------------------------------------------------|
B-----------------20b-20--17h19p17----17--------------------------------------|
G----------------------------------19----19-17----19----17-19-20-19-17---19-19|
D----------------------------------------------19----19-----------------------|
A-----------------------------------------------------------------------------|
E-----------------------------------------------------------------------------|


)f__ )f___
/ ) / )
E---------------------------------------------|
B-----------------------17h20p17--------------|
G-19-17------17-19----19-------------19-----19|
D---------------------------------------------|
A---------------------------------------------|
E---------------------------------------------|(x6)
|__________________________________|


)f )f )f )f )f )f )f__
/ / / / / / / )
E--22-22-22-22-22-22-22----22----19-17-19----17-------------------------------|
B-----------------------------------------20----20-17--17---------------------|
G----------------------------------------------------19-----19----------------|
D--------------------------------------------------------19------17-----------|
A--------------------------------------------------------------19---19-17-15--|
E---------------------------------------------------------------------------17|

)f
/
E----------------------------|20----|(x6) |-20-17-20-20fb-17v-17---|
B----------------------------|------| |------------------------|
G----------------------------|------| |------------------------|
D----------------------------|------| |------------------------|
A-17---15-17--17fb--17-15-19-|------| |------------------------|
E---17-----------------------|------| |------------------------|
|_____________|
(harmonics)
)f
/
E---22vvvvvvvvvvvvvvvvvvvvvvvvvvvvvvvvvvvvvv|
B-------------------------------------------|
G-------------------------------------------|

)1/2 )1/2_
/ / )
E------------------------------------------|
B----15-17-17----17------17-15vvvvvvv15/---|
G-14---------------------------------------|
D------------------------------------------|
A------------------------------------------|
E------------------------------------------|


)f )f_
/ / )
E------------------------------------------|
B-13-15-15----15---15--13vvvvvvvv13/-------|
G------------------------------------------|
D------------------------------------------|
A------------------------------------------|
E------------------------------------------|

)f )f__
/ / )
e--------------------------------------------------------------|
B--10--12--13--13--13----13--12vvv--10------10v-12v-13vvvv/----|
G---------------------------------------12---------------------|
D--------------------------------------------------------------|
A--------------------------------------------------------------|
E--------------------------------------------------------------|

)1/2______
/ )
E------------------------------------------------|
B----15-17-17-----------17--15vvvvvvv15/---------|
G-14---------------------------------------------|
D--------------------------------------------12--|
A------------------------------------------------|
E------------------------------------------------|



)f )f_
/ / )
E-----------13-----------------------------|
B-13-15-15----15---15---13vv/--------------|
G------------------------------------------|
D------------------------------------------|
A------------------------------------------|
E------------------------------------------|
)f )f_ )f____________
/ / ) / )
E----------------------------------------------------------------|
B-10-12-13—13----13---13--12vvvvvvv-10v----------8--------------8|
G---------------------------------------10v----------------------|
D----------------------------------------------------------------|
A----------------------------------------------------------------|
E----------------------------------------------------------------|

outro

e---8--5h8p5--------------------------------------------5---------------------|
b-------------8--5h8p5---------------------------5---8-----8---5--------------|
g-----------------------7--5h7p5----7------5---7------------------8--7--5-----|
d--------------------------------7-----7--------------------------------------|
a-----------------------------------------------------------------------------|
e-----------------------------------------------------------------------------|


E---------------------------------------------------------|
B---------------------------------------------------------|
G----7----5-----------------------------------------------|
D--7---7-----7---5----------------------------------------|
A-------------------7---5---------------2vvvvvvvvvvvv-----|
E--------------------------7---5----------------------5v--|

Aucun commentaire:

Messages les plus consultés