A Lax, le blues rock est à la fête


De grands noms du blues et du rock, un bon millier, voire plus, de personnes massées sous un chapiteau, une bande de « fous » réunis par la même passion depuis des années… La recette a largement fait ses preuves. Tous ces ingrédients vont donc être réunis, ce samedi, pour le neuvième festival Lax'n blues.

L'an passé, le président Didier Bastonéro et son équipe avaient frappé un grand coup en invitant Scottland, formation d'inconditionnels des mythiques AC-DC première période (avec l'inoubliable Bon Scott). Cette année, l'association réalise un nouveau coup de maître en invitant une véritable légende du rock des années '70. Il s'agit de John Coghlan, batteur des vingt premières années d'existence des fameux Status Quo. Ayant les droits sur les plus grands tubes de ce que Didier Bastonéro appelle « la bonne époque » du groupe, le public peut donc s'attendre à du bon rock seventies de derrière les fagots avec le John Coghlan's Quo.

Mais avant, les fans auront l'occasion de (re) découvrir quelques formations qui, dans d'autres styles, mais toujours blues et rock, font preuve d'un sacré talent. C'est le duo Two Timers (l'ex-guitariste de Dr Feelgood et une chanteuse à la voix superbe) qui ouvrira le « bal » avec du blues acoustique. « Histoire de se mettre doucement dans l'ambiance », commente Didier Bastonéro.

Ensuite, les décibels vont augmenter avec Burning Dust. Un trio de Parisiens 100 % rockabilly à la présence scénique époustouflante. « C'est pas du blues, c'est vrai, mais ça bouge vraiment bien », s'excusent presque les organisateurs du festival.

Cependant, le blues reviendra sur scène avec Shake Your Hips. Cinq Parisiens, encore, qui prouvent que le « bon vrai blues rock » n'est pas le seul apanage des « Ricains ».

Tout ceci promet donc une superbe soirée, ce samedi du côté de Lax, à partir de 19 heures (10 €, billets en vent sur place uniquement). D'autant qu'entre les groupes, il n'y aura pas vraiment de temps mort avec la fanfare rock et déjantée Rock Box.

Un article de LaDépêche

Espagne: un Musée du rock dans la nouvelle "cathédrale des loisirs" de Barcelone

Un Musée du rock a ouvert vendredi dans la nouvelle "cathédrale des loisirs" de Barcelone, dernière en date des créations culturelles de la capitale catalane installée dans d'anciennes arènes réhabilitées.
Premier de ce genre en Europe, le Musée du rock abrite des salles dédiées aux Beatles, aux Rolling Stones et à d'autres groupes moins illustres de rock espagnol. Il aura fallu huit ans de travaux et 200 millions d'euros pour que voit le jour le complexe commercial et culturel ultramoderne installé dans les Arènes, théâtre de grandes corridas au 20ème siècle. Le Musée du rock offre des espaces consacrés aux grandes années du rock, des expositions temporaires et une salle de concert de 200 places. Des objets cultes sont exposés, comme un billet d'entrée pour un concert des Rolling Stones signé de tous les membres du groupe et une guitare de John Lennon. Plus inattendu, le texte d'une plainte pour tentative "d'enlèvement" déposée contre John Lennon et Yoko Ono aux Baléares par le premier mari de Yoko Ono, qui avait eu une fille avec elle. Les amateurs pourront aussi s'improviser musiciens sur la fausse scène du On Stage, en jouant d'un instrument, lisant sur un écran le texte de leur chanson préférée, sous les habituels rayons lumineux colorés des scènes de concert. Le rockeur amateur pourra repartir après avoir acheté le DVD de sa prestation. Il trouvera dans la boutique des livres consacrés à ses idoles, des sous-verres ou des casquettes décorées du "Yellow Submarine" des Beatles. (DGO)

Un Article de RTLINFO

TAB Stop Crying Your Heart Out Oasis

"Stop Crying Your Heart Out" by Oasis from "Heathen Chemistry" (2002).

Chord Legend (Standard Tuning, no CAPO). This is the acoustic version as seen
on The Panel. This version is 99% accurate. Corrected by Clement Tsang

E A D G B E
Bm x 2 4 4 3 2
Bm(add11) x 2 4 4 3 0 he actually plays it: x99700
Asus2 x 0 2 2 0 0
E 0 2 2 1 0 0
Esus 0 2 2 2 0 0
Em7 0 2 2 0 3 3
G 3 2 0 0 3 3
D x x 0 2 3 2
Asus4 x 0 2 2 3 0


Bm Asus2 [E Esus4]
Hold on, hold on, don’t be scared
G
you’ll never change what’s been and gone
Bm Asus2 [E Esus4]
may your smile, shine on, don’t be scared
G
your destiny may keep you warm

D Asus4
Cause all of the stars are fading away
Em7 G
try not to worry you’ll see them some day
D Asus4
take what you need and be on your way
G (single, pause)
and stop crying your heart out


Bm(add11) Asus2 E
Get on, come on, why you scared
G
you’ll never change what’s been and gone


D Asus4
Cause all of the stars are fading away
Em7 G
try not to worry you’ll see them some day
D Asus4
take what you need and be on your way
Em7 G
and stop crying your heart out


D Asus4
Where all of the stars were fading away
Em7 G
try not to worry you’ll see them some day
D Asus4
take what you need and be on your way
Em7 G
and stop crying your heart out
Em7 G
stop crying your heart out
Em7 G
stop crying your heart out
Em7 G (single, pause)
stop crying your heart out

Stop Crying Your Heart Out Oasis

TAB Wonderwall Oasis

Wonderwall, by Noel Gallagher & Oasis - V1.0



Tune guitar in standard EADGBE tuning

CHORDS USED:

F#minor A Major B Major D Major Esus4

EADGBE EADGBE EADGBE EADGBE EADGBE
244222 002220 224442 x00232 022200


INTRO:

(Acoustic-sounding guitar)

F#m A Esus4 B
F#m A Esus4 B
F#m A Esus4 B
F#m A Esus4 B


VERSE 1:

F#m A
Today is gonna be the day

Esus4 B
That they're gonna throw it back to you

F#m A
By now you should've somehow

Esus4 B
Realised what you gotta do

F#m A
I don't believe that anybody

Esus4 B D Esus4 B
Feels the way I do about you now


VERSE 2:

F#m A
Backbeat the word is on the street

Esus4 B
That the fire in your heart is out

F#m A
I'm sure you've heard it all before

Esus4 B
But you never really had a doubt

F#m A Esus4
I don't believe that anybody feels

B F# A Esus4 B
The way I do about you now


BRIDGE:

D Esus4 F#m
And all the roads we have to walk are winding

D Esus4 F#m
And all the lights that lead us there are blinding

D Esus4
There are many things that I would

F#m Esus4 A
Like to say to you

Esus4 B
But I don't know how


CHORUS:

D F#m A
Because maybe

F#m D F#m A
You're gonna be the one that saves me?

F#m D F#m A
And after all

F#m D F#m A F#m (hold) A
You're my wonderwall


VERSE 3:

F#m A
Today was gonna be the day

Esus4 B
But they'll never throw it back to you

F#m A
By now you should've somehow

Esus4 B
Realised what you're not to do

F#m A
I don't believe that anybody

Esus4 B
Feels the way I do

F#m A Esus4 B
About you now


BRIDGE:

D Esus4 F#m
And all the roads that lead you there are winding

D Esus4 F#m
And all the lights that light the way are blinding

D Esus4 F#m Esus4 A
There are many things that I would like to say to you

Esus4 B
But I don't know how


CHORUS:

D F#m A
I said maybe

F#m D F#m A
You're gonna be the one who saves me?

F#m D F#m A
And after all

F#m D F#m A F#m
You're my wonderwall

D F#m A
I said maybe (I said maybe)

F#m D F#m A
You're gonna be the that who saves me?

F#m D F#m A
And after all

F#m D F#m A F#m
You're my wonderwall

D F#m A
I said maybe (I said maybe)

F#m D F#m A
You're gonna be the one that saves me? (that saves me)

F#m D F#m A
You're gonna be the one that saves me? (that saves me)

F#m D F#m A F#m
You're gonna be the one that saves me? (that saves me)


ENDING:

Solo TAB (Play 8 times):

E ---|-----5-2-|-----
B -3-|-2-3-----|-----
G ---|---------|-----


Wonderwall Oasis

Liam Gallagher s'excuse auprès des fans français d'Oasis


On a l'habitude d'entendre Liam Gallagher beaucoup parler, mais rarement s'excuser. C'est pourtant ce qu'a fait l'ancien chanteur du groupe Oasis dimanche soir alors qu'il se produisait sur la scène du Casino de Paris avec son nouveau groupe, Beady Eye.

C'est spécifiquement à ses fans français que Liam Gallagher a présenté ses excuses pour les avoir déçus lors du dernier passage d'Oasis en France, lors du festival Rock en Seine en août 2009. Une dispute avait éclaté dans les coulisses entre Liam et son frère Noel Gallagher, poussant le groupe à annoncer qu'il se séparait. Si, sur le moment, on a pensé à un coup de sang, le groupe ne s'est toujours pas reformé et les deux frères ne se sont plus reparlé.

Avant de commencer son concert, Liam Gallagher s'est donc adressé au public. « Désolé de vous avoir laissé tomber la dernière fois », a-t-il ainsi lancé. « J'espère qu'on pourra se rattraper ce soir ».

Beady Eye vient de dévoiler son premier album, "Different Gear, Still Speeding", tandis que Noel Gallagher travaillerait actuellement sur un premier album solo.


Source de l'info Ozap.com

The Offspring - Self Esteem

TAB Self Esteem Offspring

Song Name:Self Esteem
Band:Offspring
Tuning:Standard

Intro/choras
Play this twice. Note:This part follows the rythm from the volcals prior to guitar entry.
e---------------------------|
B---------------------------|
G---------------------------|
D---------10-10-5-5-5-5-----|
A-7-7-7-7-8--8--3-3-3-3-5-5-|
E-5-5-5-5---------------3-3-|

Intro pt.2
The first 6/1 is a quarter note the next two are eiths and the rest are sixteenths.
e-------------------------------|
B-------------------------------|
G-------------------------------|
D-------------------------------|
A-3-3-3-3-3-3-3-3-3-3-3-5-5-5-5-|
E-1-1-1-1-1-1-1-1-1-1-1-3-3-3-3-|

2 measures of drums and bass then after the first two 4/5s 7 more.

Verse pt.1
e------------|
B------------|
G-7-7----7-7-|
D-5-5----5-5-|
A------------|
E------------|

Verse pt.2
This part follows the bass line. Play four times the last time play the 5/3 as a measure
sixteenth notes.
e-----------------------------------------|
B-----------------------------------------|
G-----------------------------------------|
D---------------------5-5-5-5-5-----------|
A-7-7-7-7-7-3-3-3-3-3-3-3-3-3-3-5-5-5-5-5-|
E-5-5-5-5-5-1-1-1-1-1-----------3-3-3-3-3-|

Bridge pt.1
This sounds the same as the intro/choras. Play six times. Every two times play the 5/5
a measure of sixteenth notes instead of the normal way.
e-------------------------|
B-------------------------|
G-------------------------|
D-7-7-7-7-3-3---------5-5-|
A-5-5-5-5-1-1-3-3-3-3-3-3-|
E-------------1-1-1-1-----|

Bridge pt.2
The first part of this sounds like the intro/choras, the second part sounds like intro pt.2.
e-----------------------------------------------------|
B-----------------------------------------------------|
G-----------------------------------------------------|
D-7-7-7-7-3-3-5-5-5-5---------------------------------|
A-5-5-5-5-1-1-3-3-3-3-5-5-3-3-3-3-3-3-3-7-7-7-7-7-7-7-|
E---------------------3-3-1-1-1-1-1-1-1-5-5-5-5-5-5-5-

The Offspring - Why Don't You Get A Job


The Offspring - Why Don't You Get A Job

TABS The Offspring - Why Don't You Get A Job

The Offspring - "Why Don't You Get A Job?"
Track 11 on the album "Americana"


During the chorus, break, and
ending, play the chords in the "ska upstroke" (just
hit the highest 4 strings).

Chords:

F Bb C G
e---1----------1---------3-----------3------------|
B---1----------3---------5-----------3------------|
G---2----------3---------5-----------4------------|
D---3----------3---------5-----------5------------|
A---3----------1---------3-----------5------------|
E---1--------------------------------3------------|

VERSE 1: (No guitar this verse!!)

My friend's got a girlfriend
Man he hates that bitch
He tells me every day
He says "Man I really gotta lose my chick
In the worst kind of way"

VERSE 2:
F
She sits on her ass
Bb
He works his hands to the bone
F C
To give her money every payday
F Bb
But she wants more dinero just to stay at home
F C F
Well my friend, you gotta say

CHORUS:
F Bb
I won't pay, I won't pay ya, No Way-ay-ay-ay
F C F
Na na, why don't you get a job?
F Bb
Say no way, say no way-ah, no way-ay-ay-ay
F C F
Na na, why don't you get a job?

VERSE 3:
F Bb
I guess all his money, well it isn't enough
F C
To keep her bill collectors at bay
F Bb
I guess all his money, well it isn't enough
F C F
Cause that girl's got expensive taste

CHORUS

BREAK:
Bb
Well I guess it ain't easy
F
Doing nothing at alllllllll ohhhh yeahhhh
Bb
But hey man free rides just don't
G C
Come along every day

(Let me tell you about my other friend now)

VERSE 4:
F
My friend's got a boyfriend
Bb
Man she hates that dick
F C
She tells me every day
F Bb
He wants more dinero just to stay at home
F C F
Well my friend, you gotta say

CHORUS (x2)

ENDING:
F Bb
I won't give you no money, I'll always pay
F C F
Na na, why don't you get a job?
F Bb
Say no way, say no way-ah, no way-ay-ay-ay
F C END on F
Na na, why don't you get a job?

The Offspring en concert à Paris



Hé les kids, il va falloir demander à vos parents de rentrer plus tôt de vacances en août, les Offsprings sont effectivement en concert à Paris.

La dernière fois que Offspring est venu ramasser les compteurs, c'était à Rock en Seine, il y a deux ans. Bon, il est vrai que cela avait été un concert d'anthologie. Et bien, si cela vous voulez remettre cela, vous pouvez ajouter dans votre agenda la date du 31 août 2011, le groupe sera en concert à Paris au Zénith.

Les places seront mises en vente à partir du 14 mars à 10 h pour un prix compris entre 42,80 et 49,40 euros. Oui, c'est précis.




Source de l'info WaXxMuSiC

.

Gammes Pentatoniques Majeur et Mineur

Minor Pentatonic Scales: 1 m3 4 5 b7
Major Pentatonic Scales: 1 2 3 5 6


Am Scale: A C D E G
C Scale: C D E G A
|-0--------3-----5--------8-----10-----|-12----------15------17----------20------22-----|
|----1-----3-----5--------8-----10-----|-----13------15------17----------20------22-----|
|-0-----2--------5-----7-----9---------|-12------14----------17------19------21---------|
|-0-----2--------5-----7--------10-----|-12------14----------17------19----------22-----|
|-0--------3-----5-----7--------10-----|-12----------15------17------19----------22-----|
|-0--------3-----5--------8-----10-----|-12----------15------17----------20------22-----|

Bbm Scale: Bb Db Eb F Ab
Db Scale: Db Eb F Ab Bb
|----1--------4-----6--------9------11-|-----13----------16------18----------21------23-|
|-------2-----4-----6--------9------11-|---------14------16------18----------21------23-|
|----1-----3--------6-----8-----10-----|-----13------15----------18------20------22-----|
|----1-----3--------6-----8---------11-|-----13------15----------18------20----------23-|
|----1--------4-----6-----8---------11-|-----13----------16------18------20----------23-|
|----1--------4-----6--------9------11-|-----13----------16------18----------21------23-|

Bm Scale: B D E Gb A
D Scale: D E Gb A B
|-0-----2--------5-----7--------10-----|-12------14----------17------19----------22-----|
|-0--------3-----5-----7--------10-----|-12----------15------17------19----------22-----|
|-------2-----4--------7-----9------11-|---------14------16----------19------21------23-|
|-0-----2-----4--------7-----9---------|-12------14------16----------19------21---------|
|-0-----2--------5-----7-----9---------|-12------14----------17------19------21---------|
|-0-----2--------5-----7--------10-----|-12------14----------17------19----------22-----|

Cm Scale: C Eb F G Bb
Eb Scale: Eb F G Bb C
|----1-----3--------6-----8---------11-|-----13------15----------18------20----------23-|
|----1--------4-----6-----8---------11-|-----13----------16------18------20----------23-|
|-0--------3-----5--------8-----10-----|-12----------15------17----------20------22-----|
|----1-----3-----5--------8-----10-----|-----13------15------17----------20------22-----|
|----1-----3--------6-----8-----10-----|-----13------15----------18------20------22-----|
|----1-----3--------6-----8---------11-|-----13------15----------18------20----------23-|

Dbm Scale: Db E Gb Ab B
E Scale: E Gb Ab B Db
|-0-----2-----4--------7-----9---------|-12------14------16----------19------21---------|
|-0-----2--------5-----7-----9---------|-12------14----------17------19------21---------|
|----1--------4-----6--------9------11-|-----13----------16------18----------21------23-|
|-------2-----4-----6--------9------11-|---------14------16------18----------21------23-|
|-------2-----4--------7-----9------11-|---------14------16----------19------21------23-|
|-0-----2-----4--------7-----9---------|-12------14------16----------19------21---------|

Dm Scale: D F G A C
F Scale: F G A C D
|----1-----3-----5--------8-----10-----|-----13------15------17----------20------22-----|
|----1-----3--------6-----8-----10-----|-----13------15----------18------20------22-----|
|-0-----2--------5-----7--------10-----|-12------14----------17------19----------22-----|
|-0--------3-----5-----7--------10-----|-12----------15------17------19----------22-----|
|-0--------3-----5--------8-----10-----|-12----------15------17----------20------22-----|
|----1-----3-----5--------8-----10-----|-----13------15------17----------20------22-----|

Ebm Scale: Eb Gb Ab Bb Db
Gb Scale: Gb Ab Bb Db Eb
|-------2-----4-----6--------9------11-|---------14------16------18----------21------23-|
|-------2-----4--------7-----9------11-|---------14------16----------19------21------23-|
|----1-----3--------6-----8---------11-|-----13------15----------18------20----------23-|
|----1--------4-----6-----8---------11-|-----13----------16------18------20----------23-|
|----1--------4-----6--------9------11-|-----13----------16------18----------21------23-|
|-------2-----4-----6--------9------11-|---------14------16------18----------21------23-|

Em Scale: E G A B D
G Scale: G A B D E
|-0--------3-----5-----7--------10-----|-12----------15------17------19----------22-----|
|-0--------3-----5--------8-----10-----|-12----------15------17----------20------22-----|
|-0-----2-----4--------7-----9---------|-12------14------16----------19------21---------|
|-0-----2--------5-----7-----9---------|-12------14----------17------19------21---------|
|-0-----2--------5-----7--------10-----|-12------14----------17------19----------22-----|
|-0--------3-----5-----7--------10-----|-12----------15------17------19----------22-----|

Fm Scale: F Ab Bb C Eb
Ab Scale: Ab Bb C Eb F
|----1--------4-----6-----8---------11-|-----13----------16------18------20----------23-|
|----1--------4-----6--------9------11-|-----13----------16------18----------21------23-|
|----1-----3-----5--------8-----10-----|-----13------15------17----------20------22-----|
|----1-----3--------6-----8-----10-----|-----13------15----------18------20------22-----|
|----1-----3--------6-----8---------11-|-----13------15----------18------20----------23-|
|----1--------4-----6-----8---------11-|-----13----------16------18------20----------23-|

Gbm Scale: Gb A B Db E
A Scale: A B Db E Gb
|-0-----2--------5-----7-----9---------|-12------14----------17------19------21---------|
|-0-----2--------5-----7--------10-----|-12------14----------17------19----------22-----|
|-------2-----4-----6--------9------11-|---------14------16------18----------21------23-|
|-------2-----4--------7-----9------11-|---------14------16----------19------21------23-|
|-0-----2-----4--------7-----9---------|-12------14------16----------19------21---------|
|-0-----2--------5-----7-----9---------|-12------14----------17------19------21---------|

Gm Scale: G Bb C D F
Bb Scale: Bb C D F G
|----1-----3--------6-----8-----10-----|-----13------15----------18------20------22-----|
|----1-----3--------6-----8---------11-|-----13------15----------18------20----------23-|
|-0--------3-----5-----7--------10-----|-12----------15------17------19----------22-----|
|-0--------3-----5--------8-----10-----|-12----------15------17----------20------22-----|
|----1-----3-----5--------8-----10-----|-----13------15------17----------20------22-----|
|----1-----3--------6-----8-----10-----|-----13------15----------18------20------22-----|

Abm Scale: Ab B Db Eb Gb
B Scale: B Db Eb Gb Ab
|-------2-----4--------7-----9------11-|---------14------16----------19------21------23-|
|-0-----2-----4--------7-----9---------|-12------14------16----------19------21---------|
|----1--------4-----6-----8---------11-|-----13----------16------18------20----------23-|
|----1--------4-----6--------9------11-|-----13----------16------18----------21------23-|
|-------2-----4-----6--------9------11-|---------14------16------18----------21------23-|
|-------2-----4--------7-----9------11-|---------14------16----------19------21------23-|

Music of Resistance - Tinariwen - Part 2

Music of Resistance - Tinariwen - Part 1

Tinariwen - Lulla

TABS Ai Du

I know he did a lot of improvisations when he played this song live, but I
just tabbed the intro of the recorded version. Enjoy it.




Tuning: Standard




e|------9----9/11---9-----------------------------------------------------------|
B|-9/11---11----------11-9b------------------------------9---------------------|
G|--------------------------10-8--------------8-----8/10---8---------8/9\8-----|
D|-------------------------------11-8~--8-11---11-----------11-8-11-----------|
A|------------------------------------------------------------------------------|
E|------------------------------------------------------------------------------|




e|------------------------------------------------------------------------------|
B|-------------------------------------------------------------------------------|
G|--------------------------6--------------------6---8/10-6-8-6-8-6------------|
D|-8-11-8--------------6/8-----10---6-8~---6/8-----------------------8~------|
A|--------11-8\6-4-----------8----8---------------8-----------------------------|
E|-----------------6------------------------------------------------------------|




e|------------------------------------------------------------------------------|
B|------9-11-9-11-9----------------------------------11-9----------------------|
G|-8/10-------------8\6---------6-8-6-8/9-6-8-6-----------10-8-6--------------|
D|----------------------8~----8-------------------8------------------8-----------|
A|-----------------------------------------------------------------------------|
E|-----------------------------------------------------------------------------|




e|---------------------------------------------------------------------------|
B|---------------9------------------------------------------------------------|
G|---6-8-6-8/10---8\6-8-6----------------------------------------------------|
D|-8-----------------------8--------------------------------------------------|
A|---------------------------------------------------------------------------|
E|---------------------------------------------------------------------------|

"Ai du" live by Vieux Farka Toure

Ali Farka Toure

Tinariwen - Aman Iman

Tinariwen & Carlos Santana : Amassakoul

tinariwen cler achel

Bombino, "Tar Hani" Live

Messages les plus consultés