honeymen 10 - 2010-01-05 - high rise fever

honeymen 8 - 2010-01-05 hate to see you go

Rachelle Plas - Utopia - Paris - This is a men's world

Rachelle Plas - HOHNER Masters of the Harmonica

Le public aime le Blues Swamp Festival


Une standing ovation du public a refermé dimanche 1er décembre au CCGP le dixième Beautiful Blues Swamp Festival de Calais.
Que ce soit sur le "OFF" ou le "IN", la qualité artistique, le remarquable accueil et le succès public, ont été au rendez-vous de cette édition programmée par l'ancien directeur du CCGP aujourd'hui en retraite, Dominique Floch, et organisée par l'équipe actuelle du CCGP.
Et... la onzième édition aura bien lieu. Pour l'instant « nous en sommes, avec Philippe Godefroy (directeur du CCGP et du théâtre, NDLR) encore au stade de la réflexion, tant sur le contenu que la forme, que prendra cette onzième édition. Certaines pistes se dessinent cependant d'ores et déjà. Il y aura toujours un "IN" au CCGP, mais il sera peut-être augmenté, et quelques dates pouraient se dérouler en d'autres lieux (Eglise Notre-Dame, Grande Halle de la place d'Armes). Ces dates de "IN" entoureraient un "OFF" central. La date du festival pourrait être déplacée pour bénéficier de conditions climatiques plus clémentes pour organiser des évènements dans les rues, pour aussi se caler sur d'autres festivals et attirer des grosses pointures en tournée, avoir au moins une ou deux grosses têtes d'affiche. Nous pourrions nous tourner un peu plus vers l'Angleterre, qui produit des artistes de grande qualité comme Nigel Feist qui est venu cette année jouer sur le "OFF" » confie Pascal Pestre adjoint à la culture de la ville de Calais.
« Le financement sera peut-être ouvert à des partenaires privés. Pour l'instant c'est le CCGP (financement public) qui supporte quasiment à 100 % le coût du festival » ajoute l'élu.
Ce qui est sûr, c'est que le Blues, cette musique véhicule d'histoire, d'émotions et d'humanité, sera encore présent à Calais en 2014.
O.F.

Le Blues au coeur de la vie des quartiers
Le "IN" du Beautiful Blues Swamp Festival se déroulait au Centre Culturel Gérard-Philipe, au coeur du quartier du Beau-Marais. « C'était l'occasion pour "la mission vie des quartiers de la ville" de mettre en place un partenariat avec le CCGP pour inviter des habitants de ce quartier au festival » explique François Duvette, agent de développement culturel de la ville de Calais. C'est ainsi que le samedi 30 novembre et le dimanche 1er décembre, deux groupes de personnes sont venues assister aux concerts en entrée libre. Certains étaient musiciens, comme Pierre qui prend des cours de guitares à la MJC rue de Greuze. « J'ai toujours aimé la guitare. Jusque-là les choses de la vie ne m'avaient pas permis de me mettre à son apprentissage. Aujourd'hui c'est fait, je suis inscrit à la MJC au cours de Fabrice. Ce concert de Ron Hacker, vraiment super. J'aime ce blues assez roots » confie-t-il. D'autres, comme Didier, sont simplement amateurs de bon son et découvrent le Blues Swamp Festival.

Le Blues raconte la vie
Ron Hacker est un vrai bluesman. Né en Indiana, il vit aujourd'hui à San Francisco. En trio, guitare, basse, batterie, il délivre un rhythm'n'blues acerbe et énergique qui habille des textes pleins de vie et d'humour. L'artiste, après son concert au CCGP, a répondu aux questions de spectateurs venus du quartier proche du Beau-Marais, invités par la mission "Vie de quartier de la ville" de Calais. Il a ainsi confié qu'il « jouait sur une guitare à 100 dollars ». Qu'il avait « commencé à jouer de façon acharnée (10 heures par jour) à l'âge de 27 ans, (il en a 40 de plus aujourd'hui) ».
« J'écris des chansons sur les choses de la vie. Comme celle qui parle de ma troisième femme qui se demandait où j'allais pouvoir encore me tatouer, ou celle qui raconte mes relations avec l'un de mes fils aujourd'hui devenu grand qui, à une époque, ne voulait pas faire d'études et a commencé sa vie professionnelle en vendant des frites » ajoute-t-il.

Vrai succès public
Le Beautiful Blues Swamp Festival de Calais est, en 2013, devenu une institution. Dominique Floch, son créateur, ancien directeur aujourd'hui à la retraite du CCGP, l'a amené année après année, avec ses équipes et partenaires à ce qu'il est. Sur cette dixième édition (encore programmée par D. Floch) le "IN" a fait le plein avec 1550 entrées et le "OFF" a connu un vrai succès populaire, avec plus de 1000 personnes qui ont suivi les concerts et manifestations dans les bars et lieux culturels, sans compter les 1300 spectateurs du concert gospel d'ouverture dans l'église Notre-Dame.

Source

Le blues de B.B. King séduit Miami


S’il y a un concert à ne pas manquer ce mois-ci, c’est bien celui de B.B. King.

 Ça tombe bien. Il se produira le 5 janvier à l’Adrienne Arsht Center de Miami dans le cadre de sa tournée américaine.
Ce king de la guitare blues est une véritable légende. Tout le monde connait B.B. King, lauréat de multiples Grammy Awards pour le meilleur album de blues traditionnel.
 A presque 70 ans de carrière, ce bluesman continue de faire rêver les amateurs du genre.
 Par ailleurs, différentes dates sont prévues en Floride (Clearwater le 31 décembre et le 2 janvier, Orlando le 3, Sarasota le 4 et Jacksonville le 7)
Source

Saint-Saulve : la Nuit du Blues, ce samedi, réserve de nombreuses animations

La huitième Nuit du Blues à la MJC de Saint-Saulve aura lieu ce samedi 7 décembre.

Cette année, elle s’étoffe en accueillant quatre groupes, dont deux des meilleurs groupes européens (Awek et Blues Power Band). Trois seront sur scène et un dans le hall (Black cat joe et Miss Corina) pendant les interscènes.

La soirée débutera à partir de 19 heures. Blues Power Band s’est installé sur la scène blues & rock française, bénéficiant d’une solide réputation forgée sur scène comme en studio. Fort d’une expérience bâtie sur plus de 500 concerts et dans la lignée de son 4e album « Dark Room » le band prend de l’épaisseur tout en conservant la puissance, l’enthousiasme et le sens de l’humour qui le caractérisent depuis toujours…

 Les deux pieds dans le rock sans pour autant oublier ce qui lui a donné la vie, le blues. Awek, avec 8 albums et 18 années d’expérience, a acquis une force et une maturité digne de ses pairs d’outre-Atlantique. Leur style musical est un cocktail explosif, mêlant classicisme et originalité. Il a participé à de nombreux grands festivals de Blues et de Jazz en France mais aussi en Europe, en Inde et en Amérique du Nord. Le groupe a eu l’honneur d’être finaliste à l’International Blues Challenge à Memphis en 2008, et en 2011. the Noisy Neighbours, groupe belge emmené par Geneviève Dartevelle (harmoniciste) qui devait à l’origine venir avec Bob Christopher mais celui-ci nous a malheureusement quittés en Juillet.

Son nouveau quartet nous propose un répertoire composé exclusivement de compositions personnelles imprégnées de leurs influences personnelles avec une base commune : le blues. Leur musique est difficile à cataloguer mais traverse tout à la fois les univers du Boogie Hillbilly’s Country-Blues RootsRock’n-Rollien aux accents punkfolk, le tout interprété avec beaucoup d’humour et d’énergie. Black Cat Joe & Miss Corina, avec une guitare, un kazoo, une grosse caisse et un « cymbalophone » pour marteler le rythme, une contrebassine conçue à partir d’une bassine, d’un manche et d’une corde, une voix rocailleuse à souhait, ce duo nous emmène, via le blues et la country, au cœur des racines du rock et du boogie.

 Source

How To Play Heartbreak Hotel By Elvis Presley - Guitar Lesson

Blue Suede Shoes - Guitar Lesson - Elvis Presley - Beginner Guitar Lesson

Blues guitar lesson on the turnaround lick2 acoustic or electric

Elvis - That's Alright Mama - Easy Acoustic Blues Guitar Lesson Tutorial...

Allman Brothers - Midnight Rider - How to Play Acoustic Blues Classic ...

Blues Rhythm and Lead Guitar Lesson

Blues Rhythm Guitar Lesson - Key of E

Acoustic blues lesson - Easy Songs 1 (Guitar Lesson)

Blues Guitar Lesson on Acoustic Guitar - Big Band, Swing Style: EP008

Delta Blues Guitar Lesson - Fingerstyle Like Robert Johnson

Delta Acoustic Blues Guitar Lesson: EP013

Acoustic Blues Guitar Lesson

Cigar Box Guitar Kit build it yourself

3 string Cigar Box Guitar building how to blues lessons

Build a Simple Electric Guitar in 10 minutes (Diddley Bow)

How to Make an Electric Cigar Box Guitar for $25

How to make a cigar box guitar

Du blues en automne

Partagé entre concerts et expositions, le festival Aber Blues, troisième du nom, déferle sur le Nord-Finistère.

 

Du blues pour réchauffer la saison automnale. C’est ce que propose, jusqu’au 30 novembre,  le Hot Club Jazz Iroise avec la troisième édition d’Aber Blues. Le festival célébrera la musique noire américaine et ce, au gré de concerts mais aussi d’expositions. Des expositions qui, présentées à Saint-Renan, Porspoder, Lampaul-Plouarzel et Locmaria-Plouzané, permettront au public de découvrir les origines du blues (et l’extraordinaire travail de l’ethnomusicologue Alan Lomax) et de s’immerger, en photos, dans cet univers musical grâce aux clichés de Guy Le Texier, photographe amateur. Avec Instants Damnés, il est parti à la rencontre de musiciens légendaires. « J’essaie d’apporter ma pierre à l’édifice qu’est la reconnaissance de cette culture afro-américaine bien souvent oubliée ou ignorée », explique l’artiste qui se considère comme  « un capteur d’instants ».

Concerts

Le temps fort du festival aura lieu du 22 au 24 novembre. Plusieurs concerts sont programmés durant ce week-end   festif et haut en couleur qui débutera le vendredi, à Lanildut (à la Maison de l’Algue), par un apéro  animé par la fanfare Funky Dirty Chicken. Le lendemain, Ben Toury, jeune prodige du swing-blues-boogie, se produira avec son quartet à Brélès, tandis que Philippe Ménard et Gladys et Michel Foizon investiront le dimanche, en fin d’après-midi, la salle le  Kruguel, à Lampaul-Plouarzel pour clore  cette édition d’Aber Blues.
Pratique :
A Brélès, Lampaul-Plouarzel, Lanildut, Porspoder, Saint-Renan, et Locmaria-Plouzané, jusqu’au 30 novembre (concerts du 22 au 24 novembre).
Rens. : 02 98 04 32 20. http://www.hot-club-jazz-iroise.fr

Le blues torride de Valerie June


Star annoncée du festival des Inrocks 2013, Valerie June était encore une inconnue il y a quelques mois, jusqu’à ce que son album «Pushin’ against a stone» (Pias) révèle au monde une voix profonde et fracassée, et une musique hantée par les fantômes du patrimoine folk-blues américain.

 Comment avez-vous découvert la musique ancestrale qui irrigue aujourd’hui vos chansons ?
 J’aimais beaucoup les chants gospel que j’entendais à l’église où j’allais enfant, à Jackson, Tennessee. J’y ai découvert qu’on avait tous une voix, et que parfois, ce qui en sortait pouvait être magique. A la maison, on écoutait pas mal de musique soul et R&B et, plus tard, j’ai beaucoup écouté les disques de Tracy Chapman. J’aimais son écriture simple et précise.

 Quand avez-vous, à votre tour, commencé à écrire des chansons ?
 Je ne sais plus exactement, mais je me souviens que tout à coup, je me retrouvais dans un endroit magique, mystique... Comment l’expliquer ? Quand on est dans un musée et que l’on voit une toile qui vous bouleverse, on se demande : «Mon Dieu, mais d’où vient cette œuvre ? Comment est-elle née ?» Et bien, mes chansons, je les vois naître de la même manière, c’est une expérience très particulière...

 Racontez-nous !
 Eh bien, tout d’abord j’écris beaucoup : des mots, des bribes de phrase, des réflexions. Le morceau-titre, «Pushin’ against a stone», m’est venu comme ça : je pensais que souvent dans ma vie, j’avais dû «pousser un roc»... Puis j’entends une mélodie dans ma tête, sur laquelle je plaque ces mots ou bouts de phrase. La guitare ou le banjo viennent ensuite et peu à peu, la chanson naît, devant mes yeux...

 Elles ont trouvé ensuite en Dan Auerbach, des Black Keys, l’arrangeur idéal...
 Tout à fait. Je l’ai choisi parce qu’il avait comme moi une vision large de la musique américaine, il a tout de suite compris comment je voulais que mes chansons sonnent. Et avec tout son attirail vintage, ses vieux micros et ses instruments d’époque, il a réussi à leur donner la patine que j’entendais dans ma tête.

 Qu’apporte la scène à vos chansons ?
 Leur vérité. Le disque est la somme des meilleures prises que l’on pouvait faire des voix, des guitares, etc., mais sur scène, je ne peux garantir la perfection, mais l’authenticité de ce que je ressens au moment précis où je chante. Souvent, je me laisse porter par la musique et si je chante «I love you», je me demande «Mais au fait, qui va m’aimer, moi ?», je me laisse submerger par mes émotions, je ne retiens plus rien et là, tout peut arriver...

Une soirée placée sous le signe du blues dynamité

Groupe londonien formé en 2007, The Jim Jones Revue fait partie de ces groupes pour qui la gomina est synonyme de bon goût, pour qui les vestes en jean cloutées sont toujours tendance et pour qui le rock’n’roll n’est pas une affaire de coupe de cheveux à mèche.
 Non, le rock’n’roll, ça doit sentir la bière, la fumée de cigarette et le whisky. Ça doit jouer vite et être brutal. Conduit par l’ancien chanteur de Thee Hypnotics, The Jim Jones Revue drague les eaux profondes du rock’n’roll éternel, navigue sans peur dans les remous du punk rock de 1977 et accoste parfois sur les berges pour une halte au son du blues originel. En cela, ce combo, qui traverse régulièrement le Channel pour honorer ses fans français, ressemble de plus en plus à un enfant illégitime du séminal Dr Feelgood.

 En concert, leurs chansons fulgurantes, supersoniques font de ce groupe, salué par la critique et le public, les porteurs de flamme d’un rock’n’roll ambitieux. Un pur moment de blues et de garage, simple, direct et violent. En première partie, se produira Sister Simone & The Holy Balls, du Pays basque. Encore une formation née au fond d’une grange en plein champs de piment ou de maïs ! Mais à l’écoute de leurs compositions, on comprend immédiatement que le groupe, à la musique brute et nature, à l’énergie sensible et engagée, est fait pour la scène. Led Zeppelin, Janis Joplin, Jimy Hendrix ou Cream comptent parmi leurs influences notables.

 Après cinq ans de travail, la formation vient présenter son premier album éponyme sorti en juin. Crachant, tournoyant, hurlant, Sister Simone & the Holy Balls emporte dans un ouragan aux vapeurs de whisky, de santiag et de vieux cuir, en mâchant toujours avec classe la chique de la liberté.

Bombino ou le blues du désert

Quand Bombino rencontre Dan Auerbach des Black Keys, cela donne l’album Nomad, sorti en France en avril 2013. Ces chansons teintées de blues viennent agrémenter le répertoire du guitariste, auteur-compositeur et interprète touareg Omara Moctar dit Bombino dont les textes sont des messages d’espoir et de paix. Autodidacte passionné, il est l’un des représentants actuels les plus connus de la musique et de la culture touareg. Il compose sur des rythmes chaloupés une musique où les langueurs du désert s'allient à la véhémence du rock. A découvrir samedi 16 novembre au Palais des Congrès de Digne-les-Bains Samedi 16 novembre à 21h - Palais des congrès de Digne-les-Bains. Tarifs de 6 à 16 euros. Contact : 04 92 30 87 10.

LEARN HARMONICA: BEGINNER BLUES LESSON

Harmonica C - Midnight Express - Le plan de la semaine (25-2011)

Harmonica A - "Whole Lotta Love" - Le plan de la semaine (20-2011)

Harmonica A - Sweet Home Chicago - Le plan de la semaine (24-2011)

Harmonica A - Blues riff - Le plan de la semaine (23-2011)

"Santiano" - Paul Lassey - Harmonica Bb / Sib - 3eme pos.

Harmonica A - Sweet Home Chicago - Le plan de la semaine (24-2011)

Mundharmonika spielen - Mein schönstes Hobby - Trailer

10 Easy Lessons Learn To Play Blues Harmonica Preview

How to play 12-bar-Blues on Bluesharp tongueblocking, Hotschi-Gotschi-Li...

Blues Harmonica Secrets Revealed (Gussow.016)

How to play a 12 bar Blues on Bluesharp, Hotchi-Gotchi-Lick Part I

Beginner Harmonica lessons: Blue Exercise Sheet 01

Fonctions sociales du blues



Robert Springer Editions Parenthèses, 1 janv. 1999 - 231 pages
La fréquentation de la musique de blues passe le plus souvent par plusieurs niveaux de perception. Dans une apparence première, due sans doute à une assimilation trop rapide du blues aux negro spirituals et aux chants des esclaves, on s'attend à y trouver des exemples plus ou moins évidents de contestation, voire des incitations à la révolte.
 Au-delà de cette connaissance superficielle, le Noir que l'on rencontre dans le blues semble se résigner et prendre presque goût à son sort et le genre ne semble faire état que de préoccupations liées au quotidien.
Pour ne pas rester sur ces impressions quelque peu décevantes il a fallu progresser dans l'analyse, notamment grâce à la transcription puis l'étude de centaines de morceaux. C'est ce niveau de lecture qui révèle que, si certaines contradictions et incohérences sont dues au caractère oral de cette musique, d'autres ne s'expliquent que si elles participent d'une volonté appuyée et si elles opèrent comme masque de la contestation. Par-delà le blues, cet ouvrage vise à réhabiliter tous les genres issus de la poésie ou de la littérature orale, dans un monde où l'oralité a depuis longtemps perdu sa prééminence face à l'écriture. L'étude des faits de culture oraux est une branche non négligeable du savoir qui a permis la connaissance et la compréhension de nombreux groupes ethniques ou culturels. Et, de même que dans certaines traditions populaires les mythes sont appréhendés comme des histoires vraies, le blues, lui, peut être considéré comme la véritable histoire du peuple noir américain.

 .

How to Play La Grange by ZZ Top on Guitar

How to Play Foxy Lady by Jimi Hendrix on Guitar

Kenny Wayne Shepherd- Voodoo Chile

How to Play Voodoo Child by Jimi Hendrix on Guitar part 2 of 2

How to Play Voodoo Child by Jimi Hendrix on Guitar part 1 of 2

Hotel California - Eagles (aula de violão)

I Love Rock N' Roll - Joan Jett & The Blackhearts (aula de guitarra)

Paranoid - Black Sabbath

Back in Black - AC/DC (aula de guitarra - riff)

Paranoid - Black Sabbath (aula de guitarra)

Purple Haze - Jimi Hendrix (aula de guitarra)

Rock and Roll - (Led Zeppelin - TSRTS) Lesson

How to play Black Dog by Led Zeppelin on guitar

Rival Sons - Keep on Swinging [Guitar Cover]

Tell Me Something Tab by Rival Sons

Standard Tuning

INTRO                                                  x4
e-------------------------------------------------------|
B-------------------------------------------------------|
G----------------4b--------6b-6p4-6p4-------------------|
D-xx--4h6-6p4-6-----6h4-6-------------6p3-4p3-4p3-4-----|
A-xx------------------------------------------------2~--|
E-------------------------------------------------------|

VERSE
e-------------------------------|
B-------------------------------| then play
G-------------------------------| the following
D------6~--4p3-4p3----------6~--|
A------------------2~-----------|
E--4-4------------------4-4-----|


1st time                    2nd time              3rd time
e--------------------------|---------------------|------------------|
B-6-6br-4------------------|---------------------|------------------|
G---------4---4---4h6p4----|-6b-6b-6b-6b-6r-4----|------------------|
D-----------6---6-------6--|------------------6--|------------------|
A--------------------------|---------------------|-2-4-4br-4-2-4-2--|
E--------------------------|---------------------|------------------|

4th time
e----------------|
B----------------|
G-4/6-6-6\5-5/6--|
D-4/6-6-6\5-5/6--|
A----------------|
E----------------|

0.47
BRIDGE
e-----------------------------------------------------------------------------------|
B-------------8-9-9p8-9p8----------------8-9p8-9p8-9/11--------------8-9-9p8-9p8----|
G-88888--8-10-------------8--88888--8-10-----------------88888--8-10-------------8--|
D-88888----------------------88888-----------------------88888----------------------|
A-66666----------------------66666-----------------------66666----------------------|
E-----------------------------------------------------------------------------------|

BRIDGE cont.
e---------------|
B---------------|
G--88888--------|
D--88888--4--5--|
A--66666--4--5--|
E---------2--3--|

CHORUS                                                x4
e-------------------------------------------------------|
B-------------------------------------------------------|
G----------------4b--------6b-6p4-6p4-------------------|
D-xx--4h6-6p4-6-----6h4-6-------------6p3-4p3-4p3-4-----|
A-xx------------------------------------------------2~--|
E-------------------------------------------------------|

VERSE
e-------------------------------|
B-------------------------------| then play
G-------------------------------| the following
D------6~--4p3-4p3----------6~--|
A------------------2~-----------|
E--4-4------------------4-4-----|

5th time           6th time           7th time              8th time
e-----------------|-----------------|---------------------|--------------------------|
B-----------------|-----------------|---------------------|--------------------------|
G-----------------|--4h6-6p4-6p4----|---------------------|--------------------------|
D--9p6-6-9-6-9p6--|--------------6--|---------------------|--------------------------|
A-----------------|-----------------|----2-4-4b-4b-4p2----|--------------------------|
E-----------------|-----------------|--4---------------4--|--slide-pick up-E-string--|


THEN PLAY BRIDGE


THEN PLAY CHORUS

2.20 SOLO THING
e----------------------------------------------------------------------------------------|
B------------------------------------------------------------------------------55555555--|
G--4----4----4----4h6p4--4----4---4h6-7p6-4h6-4--4---4---4----4h6p4--4----4----44444444--|
D----h6---6----h6----------h6---6-----------------h6---6---h6----------h6---6------------|
A----------------------------------------------------------------------------------------|
E---------------

The Rival Sons - Tell Me Something

Memphis Sun Tab by Rival Sons

Standard Tuning

INTRO                                                    x2          
e------------------------------------------------------------|
B----------12-12--------12-12-------12-10p9-10p9-10p9--------|bend the 11
G----------------11-----------11----------------------11(b)--|on last time
D-11-11-11----------11-----------13--------------------------|
A------------------------------------------------------------|
E------------------------------------------------------------|

MAIN RIFF
e--------------------------|
B--------------------------|
G---------------------11~--|
D--11-11-11-11-11-11--11~--|
A--11-11-11-11-11-11--9-~--|
E--9--9--9--9--9--9--------|


FILLS 0.22            0.28   
e-------------------|-----------------|
B-------------------|-----------------|
G--9-9-9-9-9--------|-----------------|
D------------11-9~--|--11p9----9-11~--|
A-------------------|-------11--------|
E-------------------|-----------------|


SOLO THING 0.30
e--------------------------------------------------------|
B--------------------------------------------------------|
G--------------------------------------------------------|
D-----9b--9p6-9/11-----------------------------------9b--|
A--9b----------------9p7-9-7br-----9p7-9p7-9-9-7br-------|
E------------------------------9-------------------9-----|

BRIDGE
e----------------------------------|
B----------------------------------|
G----------------------------------|
D----------------------9--9-9---7--|
A--11-11-11-11-11-10-7-9--9-9---7--|
E----------------------7--7-7-0-5--|


CHORUS
e---------------------------------------------------------|
B----------12-12--------12-12-------12-10p9-10p9-10p9-----|
G----------------11-----------11----------------------11--|
D-11-11-11----------11-----------13-----------------------|
A---------------------------------------------------------|
E---------------------------------------------------------|

Rival Sons - Memphis Sun

Keep On Swinging Tab by Rival Sons

E||---------------------------------|---------------------------------||
B||---------------------------------|---------------------------------||
G||---------------------------------|---------------------------------||
D||-------2--------2---4------------|--2------------------------------||
A||---4-------4---------------------|------4----2---------------------||
e||---------------------------------|---------------5---2-------------||

E||---------------------------------|---------------------------------||
B||---------------------------------|------------------2~-------------||
G||---------------------------------|------------------2~-------------||
D||---------------------------------|-----------------------4---------||
A||-------2--------2-----4----------|---2---4---2---------------------||
e||---5-------5---------------------|-------------2-------------------||



E||---------------------------------|---------------------------------||
B||---------------------------------|---------------------------------||
G||---------------------------------|---------------------------------||
D||-------2--------2---4------------|--2------------------------------||
A||---4-------4---------------------|------4----2---------------------||
e||---------------------------------|---------------5---2-------------||

E||---------------------------------|---------------------------------||
B||---------------------------------|------------------2~-------------||
G||---------------------------------|------------------2~-------------||
D||---------------------------------|-----------------------4---------||
A||-------2--------2-----4----------|---2---4---2---------------------||
e||---5-------5---------------------|-------------2-------------------||



E||---------------------------------|---------------------------------||
B||---------------------------------|---------------------------------||
G||---------------------------------|---------------------------------||
D||-------2--------2---4------------|--2------------------------------||
A||---4-------4---------------------|------4----2---------------------||
e||---------------------------------|---------------5---2-------------||

E||---------------------------------|---------------------------------||
B||---------------------------------|------------------2~-------------||
G||---------------------------------|------------------2~-------------||
D||---------------------------------|-----------------------4---------||
A||-------2--------2-----4----------|---2---4---2---------------------||
e||---5-------5---------------------|-------------2-------------------||



E||---------------------------------|---------------------------------||
B||---------------------------------|---------------------------------||
G||---------------------------------|---------------------------------||
D||-------2--------2---4------------|--2------------------------------||
A||---4-------4---------------------|------4----2---------------------||
e||---------------------------------|---------------5---2-------------||

E||---------------------------------|---------------------------------||
B||---------------------------------|------------------4~-------------||
G||---------------------------------|------------------4~-------------||
D||---------------------------------|---------------------------------||
A||-------2--------2-----4----------|---2---4---2---------------------||
e||---5-------5---------------------|-------------2-------------------||



E||---------------------------------|---------------------------------||
B||---------------------------------|---------------------------------||
G||-------------------4-------------|-------------------4-------------||
D||-----4-----4-------4--2--4-------|-----4-----4-------4--2--4-------||
A||--2--4--2--4-------2--0--4-------|--2--4--2--4-------2--0--4-------||
e||--0--2--0--2-------------2-------|--0--2--0--2-------------2-------||


E||---------------------------------|---------------------------------||
B||---------------------------------|---------------------------------||
G||-------------------4-------------|-------------------4-----2-------||
D||-----4-----4-------4--2--4-------|-----4-----4-------4-----2-------||
A||--2--4--2--4-------2--0--4-------|--2--4--2--4---------------------||
e||--0--2--0--2-------------2-------|--0--2--0--2---------------------||



E||---------------------------------|---------------------------------||
B||---------------------------------|---------------------------------||
G||---6--6--6----\9------------ ----|---------------------------------||
D||---6--6--6----\9-----------------|---------------------------------||
A||---4--4--4----\7-----------------|---------------------------------||
e||---------------------------------|---------------------------------||


then repeat through out song...



and end with this...
E||---------------------------------|---------------------------------||
B||---------------------------------|---------------------------------||
G||---------------------------------|---------------------------------||
D||---4--4--4--4--------------------|---4--4--4--4--------------------||
A||---4--4--4--4--------------------|---4--4--4--4--------------------||
e||---2--2--2--2--------------------|---2--2--2--2--------------------||

Rival Sons - Keep On Swinging

Pressure And Time Tab by Rival Sons

Tabbed by: Isaias Garcia (TexasFury)

Tuning: Half-step down


Guitar - rhythm

      Intro                                                 
      S  S S S Q    H           S  S S S Q    H         
D#||-------------------------|-------------------------|
A#||-------------------------|-------------------------|
F#||-------------------------|-------------------------|
C#||---------4---------------|---------4---------------|
G#||-------4-----------------|-------4-----------------|
D#||--2h-5-------------------|--2h-5-------------------|


                                                        Verse 1                      
  S  S S S Q    H           S  S S S Q    Q    Q        S  S S S Q    H         
-------------------------|--------------------------||-------------------------|
-------------------------|--------------------------||-------------------------|
-------------------------|----------------4----2----||-------------------------|
---------4---------------|---------4------4----2----||---------4---------------|
-------4-----------------|-------4--------2----0----||-------4-----------------|
--2h-5-------------------|--2h-5--------------------||--2h-5-------------------|


  S  S S S Q    H           S  S S S Q    H           S  S S S Q    Q    Q     
-------------------------|-------------------------|--------------------------|
-------------------------|-------------------------|--------------------------|
-------------------------|-------------------------|----------------4----2----|
---------4---------------|---------4---------------|---------4------4----2----|
-------4-----------------|-------4-----------------|-------4--------2----0----|
--2h-5-------------------|--2h-5-------------------|--2h-5--------------------|


  S  S S S Q    H           S  S S S Q    H           S  S S S Q    H         
-------------------------|-------------------------|-------------------------|
-------------------------|-------------------------|-------------------------|
-------------------------|-------------------------|-------------------------|
---------4---------------|---------4---------------|---------4---------------|
-------4-----------------|-------4-----------------|-------4-----------------|
--2h-5-------------------|--2h-5-------------------|--2h-5-------------------|


                              Pre-chorus 1                                    
  S  S S S Q    Q    Q        W                   W                 
--------------------------||-------------------|-------------------|
--------------------------||-------------------|-------------------|
----------------4----2----||--2----------------|--2----------------|
---------4------4----2----||--4----------------|--2----------------|
-------4--------2----0----||--4----------------|--0----------------|
--2h-5--------------------||--2----------------|-------------------|


  W                   E  E  E  S S E  E  E  E      W                 
-------------------|-------------7-L------------|--2----------------|
-------------------|------------------7---------|--2----------------|
--8----------------|--L-----8------------8--L\--|--2----------------|
--9----------------|--L--9-----9----------------|--4----------------|
-------------------|----------------------------|-------------------|
-------------------|----------------------------|-------------------|


  W                   W                   W                 
-------------------|-------------------|-------------------|
-------------------|-------------------|-------------------|
--2----------------|--8----------------|--L----------------|
--2----------------|--9----------------|--L----------------|
--0----------------|-------------------|-------------------|
-------------------|-------------------|-------------------|


  S  S S S Q    H           S  S S S Q    H           S  S S S Q    H         
-------------------------|-------------------------|-------------------------|
-------------------------|-------------------------|-------------------------|
-------------------------|-------------------------|-------------------------|
---------4---------------|---------4---------------|---------4---------------|
-------4-----------------|-------4-----------------|-------4-----------------|
--2h-5-------------------|--2h-5-------------------|--2h-5-------------------|


                              Verse 2                                                
  S  S S S Q    Q    Q        S  S S S Q    H           S  S S S Q    H         
--------------------------||-------------------------|-------------------------|
--------------------------||-------------------------|-------------------------|
----------------4----2----||-------------------------|-------------------------|
---------4------4----2----||---------4---------------|---------4---------------|
-------4--------2----0----||-------4-----------------|-------4-----------------|
--2h-5--------------------||--2h-5-------------------|--2h-5-------------------|


  S  S S S Q    H           S  S S S Q    Q    Q       S  S S S Q    H         
-------------------------|--------------------------|-------------------------|
-------------------------|--------------------------|-------------------------|
-------------------------|----------------4----2----|-------------------------|
---------4---------------|---------4------4----2----|---------4---------------|
-------4-----------------|-------4--------2----0----|-------4-----------------|
--2h-5-------------------|--2h-5--------------------|--2h-5-------------------|


  S  S S S Q    H           S  S S S Q    H           S  S S S Q    Q    Q     
-------------------------|-------------------------|--------------------------||
-------------------------|-------------------------|--------------------------||
-------------------------|-------------------------|----------------4----2----||
---------4---------------|---------4---------------|---------4------4----2----||
-------4-----------------|-------4-----------------|-------4--------2----0----||
--2h-5-------------------|--2h-5-------------------|--2h-5--------------------||


  Pre-chorus 2                                                                            
  W                   W                   W                   W                 
-------------------|-------------------|--7----------------|--L----------------|
-------------------|-------------------|--7----------------|--L----------------|
--2----------------|--2----------------|--8----------------|--L----------------|
--4----------------|--2----------------|--9----------------|--L----------------|
--4----------------|--0----------------|-------------------|-------------------|
--2----------------|-------------------|-------------------|-------------------|


  W                   W                   Q.     E  Q.     E   
--2----------------|-------------------|-------------------7--|
--2----------------|-------------------|--7------7--L------7--|
--2----------------|--2----------------|--8------8--L---------|
--4----------------|--2----------------|--9------9--L---------|
--4----------------|--0----------------|----------------------|
--2----------------|-------------------|----------------------|


   E   E   Q     S  S  S  S  E   E    
--10--10--10----12-12-12-12-12-------|
--10--10--10----12-12-12-12-12--(0)--|
--11--11--11----13-13-13-13-13-------|
--12--12--12----14-14-14-14-14-------|
-------------------------------------|
-------------------------------------|


  |-3| |--3-| |-3| |--3-| |-3| |--3-| |-3| |--3-|  
  E  S S  S S E  S S  S S E  S S  S S E  S S  S S  
--------------------------------------------------|
--------------------------------------------------|
--------------------------------------------------|
--4--4-4p-2---4--4-4p-2---4--4-4p-2---4--4-4p-2---|
------------4-----------4-----------4-----------4-|
--------------------------------------------------|


                                                      Guitar Solo                       
  |-3| |--3-| |-3| |--3-| |-3| |--3-| |-3| |--3-|                            
  E  S S  S S E  S S  S S E  S S  S S E  S S  S S     S  S S S Q    H         
--------------------------------------------------||-------------------------|
--------------------------------------------------||-------------------------|
--------------------------------------------------||-------------------------|
--4--4-4p-2---4--4-4p-2---4--4-4p-2---4--4-4p-2---||---------4---------------|
------------4-----------4-----------4-----------4-||-------4-----------------|
--------------------------------------------------||--2h-5-------------------|


  S  S S S Q    H           S  S S S Q    H           S  S S S Q    Q    Q     
-------------------------|-------------------------|--------------------------|
-------------------------|-------------------------|--------------------------|
-------------------------|-------------------------|----------------4----2----|
---------4---------------|---------4---------------|---------4------4----2----|
-------4-----------------|-------4-----------------|-------4--------2----0----|
--2h-5-------------------|--2h-5-------------------|--2h-5--------------------|


  S  S S S Q    H           S  S S S Q    H           S  S S S Q    H         
-------------------------|-------------------------|-------------------------|
-------------------------|-------------------------|-------------------------|
-------------------------|-------------------------|-------------------------|
---------4---------------|---------4---------------|---------4---------------|
-------4-----------------|-------4-----------------|-------4-----------------|
--2h-5-------------------|--2h-5-------------------|--2h-5-------------------|


                              Breakdown                                     
  S  S S S Q    Q    Q        W                   W                 
--------------------------||-------------------|-------------------|
--------------------------||-------------------|-------------------|
----------------4----2----||-------------------|--2----------------|
---------4------4----2----||--4----------------|--2----------------|
-------4--------2----0----||--4----------------|--0----------------|
--2h-5--------------------||--2----------------|-------------------|


                                  |--3--|                                
  W                   E  E  E  E  S  S  S E  E  E      W                 
-------------------|-----7--------------------------|-------------------|
-------------------|--------7-----7h-9p-7-----------|-------------------|
--8----------------|--L--------8----------8---------|-------------------|
--9----------------|--L----------------------9--L\--|--4----------------|
-------------------|--------------------------------|--4----------------|
-------------------|--------------------------------|--2----------------|


  W                   W                   Q.     E  Q    Q     
-------------------|-------------------|--9-------------------|
-------------------|-------------------|---------7--L---------|
--2----------------|--8----------------|-----------------8----|
--2----------------|--9----------------|----------------------|
--0----------------|-------------------|----------------------|
-------------------|-------------------|----------------------|


  W                   W                   H.           Q     
-------------------|-------------------|--------------------|
-------------------|-------------------|--------------------|
-------------------|--2----------------|--8-----------------|
--4----------------|--2----------------|--9------------9----|
--4----------------|--0----------------|--------------------|
--2----------------|-------------------|--------------------|


  Q.     E  H           W                   W                 
--9------------------|-------------------|-------------------|
---------7-----------|-------------------|-------------------|
------------8--------|-------------------|--2----------------|
---------------------|--4----------------|--2----------------|
---------------------|--4----------------|--0----------------|
---------------------|--2----------------|-------------------|


  H        H            E   E   Q     S  S  S  S  E   E    
--------------------|--10--10--10----12-12-12-12-12-------||
--7-----------------|--10--10--10----12-12-12-12-12--(0)--||
--8--------8--------|--11--11--11----13-13-13-13-13-------||
--9-----------------|--12--12--12----14-14-14-14-14-------||
--------------------|-------------------------------------||
--------------------|-------------------------------------||


  Outro                                                                           
  S  S S S Q    H           S  S S S Q    H           S  S S S Q    H         
-------------------------|-------------------------|-------------------------|
-------------------------|-------------------------|-------------------------|
-------------------------|-------------------------|-------------------------|
---------4---------------|---------4---------------|---------4---------------|
-------4-----------------|-------4-----------------|-------4-----------------|
--2h-5-------------------|--2h-5-------------------|--2h-5-------------------|


  S  S S S Q    Q    Q       S  S S S Q    H           S  S S S Q    H         
--------------------------|-------------------------|-------------------------|
--------------------------|-------------------------|-------------------------|
----------------4----2----|-------------------------|-------------------------|
---------4------4----2----|---------4---------------|---------4---------------|
-------4--------2----0----|-------4-----------------|-------4-----------------|
--2h-5--------------------|--2h-5-------------------|--2h-5-------------------|


  S  S S S Q    H           S  S S S Q    S E.  S E.     Q    Q    H          
-------------------------|----------------------------|---------------------||
-------------------------|----------------------------|---------------------||
-------------------------|------------------4-----2---|---------------------||
---------4---------------|---------4--------4-----2---|-------4-------------||
-------4-----------------|-------4----------2-----0---|-------4-------------||
--2h-5-------------------|--2h-5----------------------|-------2-------------||




Guitar - solo - m.43

                   |--3--|                        |--3--|           
      H         E  S  S  S S E.      Q    S  S E  S  S  S E  Q      
D#||------------------------------|--------------------------------|
A#||--2---------L-----------------|----------2-2-------------------|
F#||--4b--------L--4b-Lb-2-4-2b---|-------4b------4b-Lb-2----------|
C#||------------------------------|-----------------------4--4~----|
G#||------------------------------|--------------------------------|
D#||------------------------------|--------------------------------|


                           PM                                              
  Q    E   S  S  Q      S  S  S  S    Q     S   S  S  S  S  S  S  S  Q     
-----------------------------------|-------17b-17-14----------------------|
----------17-----------------------|-----------------14----14-------------|
-------------16b-Lb----14----------|--------------------16----14----------|
--------------------------16-14-16-|-----------------------------16-------|
-----------------------------------|--------------------------------16----|
-----------------------------------|--------------------------------------|


                                    |--3--|                          
  S S S S S S E  S S S S Q       E  S  S  S Q    E.   S   E    S  S  
-----------------2-2-2-2-2----|-------------------------------------|
--2-2-2-2-2------2-2-2-2-2----|-----5b-Lb-2----------17b--Lb--17-14-|
--2-2-2-2-2-4----2-2-2-2-2----|-------------4-----------------------|
------------------------------|-------------------------------------|
------------------------------|-------------------------------------|
------------------------------|-------------------------------------|


                  PM                             
   S  S   S  S S  S  E    S  S  S  S  S  S  E    
-----------------------------------------------|
--17-----14------------------------------------|
-----16b-14-14------14b------------------------|
-----------------16---------14-----------------|
-------------------------16----16-15-14-12-----|
-------------------------------------------14--|


  m.74

  H         E.    S   Q       
----------------------------||
-----------17-----L--14b----||
-----------16b----Lb-14b----||
----------------------------||
----------------------------||
----------------------------||



Rival Sons - Pressure And Time

Cranberries - " Zombie " tab

Album: No Need To Argue (1994)


This song consist of 4 chords: Em, C, G, D/F#
▼= move down with the plectrum
▲= move up with the plectrum
h= hammer on
p= pull of
s= slide

Intro:
    Em               C                G                D/F#
     ▼▼▼ ▼▲▲▼ ▼▲▼     ▼▼▼ ▼▲▲▼ ▼▲▼     ▼▼▼ ▼▲▲▼ ▼▲▼     ▼▼▼ ▼▲▲▼ ▼▲▼
E |----------------|----------------|----------------|----------------|
B |--000-0000-000--|--111-1111-111--|--000-0000-000--|--333-3333-333--|
G |--000-0000-000--|--000-0000-000--|--000-0000-000--|--222-2222-222--|
D |--222-2222-222--|--222-2222-222--|--000-0000-000--|--000-0000-000--|
A |--222-2222-222--|--333-3333-333--|--222-2222-222--|--000-0000-000--|
E |----------------|----------------|----------------|----------------|

Guitar 1:
    Em           C            G            D/F#
E |------------|------------|------------|------------|
B |------------|------------|------------|------------|
G |--00000000--|--00000000--|--00000000--|--22222222--|   play this 2x
D |--22222222--|--22222222--|--00000000--|--00000000--| ends 2nd time after 
A |--22222222--|--33333333--|--22222222--|--00000000--| D/F#, with Em.
E |--00000000--|--00000000--|--33333333--|--22222222--|

Guitar 2:
(only 2nd time)
    Em                C                 G                 G
E |----------0------|----------0------|----------0------|--0-------0--|
B |--0-0---0---0----|--1-1---1---1----|--0-0---0---0----|----3---3----|
G |------0-------0--|------0-------0--|------0-------0--|------0------| 
D |-----------------|-----------------|-----------------|-------------| 
A |-----------------|-----------------|-----------------|-------------|
E |-----------------|-----------------|-----------------|-------------|


Bridge:

E |--7h8-5h7-3h5---2h3p2--------|
B |--------------5-------3-3----|
G |--------------------------4--|  guitar 1 plays chords Em, C, G, D/F#
D |-----------------------------|
A |-----------------------------|
E |-----------------------------|


Verse 1 and 2:
    Em    C     G     G
E |--0--|--0--|--3--|--0--------|
B |--0--|--1--|--3--|----3---3--|
G |--0--|--0--|--0--|------0----|  play this 4x
D |--2--|--2--|--0--|-----------|
A |-----|-----|-----|-----------|
E |-----|-----|-----|-----------|


Chorus:
    Em           C            G            D/F#
E |------------|------------|------------|------------| This is what Noel
B |------------|------------|------------|------------| Hogan plays, but
G |--00000000--|--00000000--|--00000000--|--22222222--| you can also play
D |--22222222--|--22222222--|--00000000--|--00000000--| full chords, if you
A |--22222222--|--33333333--|--22222222--|--00000000--| want, with your
E |--00000000--|--00000000--|--33333333--|--22222222--| own rhythm.


Solo:

E |--7h8-5h7-7-7-7---7h8-5h7-7-7-7---7h8-5h7-7-7-7--|
B |-------------------------------------------------|
G |-------------------------------------------------|
D |-------------------------------------------------|
A |-------------------------------------------------|
E |-------------------------------------------------|

E |--7h8-5h7-2222--2-3-5-2222--2-3-5-2222--2-3-5-2222-0-2s5-5-7-7-5555--|
B |----------0000--0-0-0-0000--0-0-0-0000--0-0-0-0000-0-0---0-0-0-0000--|
G |---------------------------------------------------------------------|
D |---------------------------------------------------------------------|
A |---------------------------------------------------------------------|
E |---------------------------------------------------------------------|

E |--5-7-7-5555--5s2-2-2-0-0-22--2-3-5-2222--2-3-5-2222--2-3-5-2--2-0-0--|
B |--0-0-0-0000--0---0-0-0-0-00--0-0-0-0000--0-0-0-0000--0-0-0-0--0-0-0--|
G |----------------------------------------------------------------------|
D |----------------------------------------------------------------------|
A |----------------------------------------------------------------------|
E |----------------------------------------------------------------------|


Song structure:
Intro
Bridge
Verse 1
Chorus 4x (ends with Em)
Bridge
Verse 2
Chorus 4x
Solo

Zombie Tab by Cranberries

Intro:
------

Guitar I (Clean):

Em Cmaj7
e -0---0---0---0-0---0-0-----0-0---|-0---0---0---0-0---0-0---0-0-0---|
B -0---0---0---0-0---0-0-----0-0---|-0---0---0---0-0---0-0---0-0-0-0-|
G -0---0---0---0-0---0-0-----0-0-0-|-0---0---0---0-0---0-0---0-0-0-0-|
D -2---2---2---2-2---2-2-----2-2-0-|-2---2---2---2-2---2-2---2-2-2-0-|
A -2-------2---2-------2-----2-2-0-|-3-------3-----------3-----------|
E -0-------0---0-------0-----0-0---|---------------------------------|

G6 D6sus
e -0---0---0---0-0---0-0-----0-0---|-0---0---0---0-0---0-0---0-0-0-0-|
B -0---0---0---0-0---0-0-----0-0---|-0---0---0---0-0---0-0---0-0-0-0-|
G -0---0---0---0-0---0-0-----0-0-0-|-0---0---0---0-0---0-0---0-0-0-0-|
D -0---0---0---0-0---0-0-----0-0-0-|-0---0---0---0-0---0-0---0-0-0-0-|
A -2-------2-----------2-------2-0-|-0-------0-----------0---0-0-0-0-|
E -3-------3-----------3-------3---|-2-------2-----------2---2-2-2-2-|

Guitar II (Dist.):

Em Cmaj7
e ---------------------------------|---------------------------------|
B ---------------------------------|---------------------------------|
G -9---9---9---9---9---9---9---9---|-5---5---5---5---5---5---5---5---|
D -9---9---9---9---9---9---9---9---|-5---5---5---5---5---5---5---5---|
A -7---7---7---7---7---7---7---7---|-3---3---3---3---3---3---3---3---|
E -0---0---0---0---0---0---0---0---|---------------------------------|

G6 D6sus
e ---------------------------------|---------------------------------|
B ---------------------------------|---------------------------------|
G -0---0---0---0---0---0---0---0---|-0---0---0---0---0---0---0---0---|
D -0---0---0---0---0---0---0---0---|-0---0---0---0---0---0---0---0---|
A -2---2---2---2---2---2---2---2---|-0---0---0---0---0---0---0---0---|
E -3---3---3---3---3---3---3---3---|-2---2---2---2---2---2---2---2---|

Repeat above Guitar II part with the following Guitar I part:

Em C
e ---------------------------------|---------------------------------|
B -----0-------0-------0-----------|---------------------------------|
G ---------0---------------0-------|---------0---------------0-------|
D -2---------------2---------------|-----5-------5-------5-----------|
A ---------------------------------|-3---------------3---------------|
E ---------------------------------|---------------------------------|

G Dsus
e ---------------------------------|-0---------------------------0-0-|
B ---------------------------------|-----3-----------------------0-0-|
G ---------------------------------|---------0-------------------0-0-|
D ---------0---------------0-------|-------------0---------------0-0-|
A -----2-------2-------2-------2---|-----------------0-------0-------|
E -3---------------3---------------|---------------------2-----------|

Continue, Guitar I (top) and Guitar II (bottom):
----------------------------------------------------
Em C
e -0-----------------------0-------|-------------------------0-------|
B -0-----------------------0-------|-------------------------0-------|
G -0-----------------------0-------|-------------------------0-------|
D -2-------------------------------|-2---2---2---2---2---2-----------|
A -2---2---2---2---2---2-----------|-3---3---3---3---3---3-----------|
E -0---0---0---0---0---0-----------|---------------------------------|

Em
e ---------------------------------|---------------------------------|
B ---------------------------------|---------------------------------|
G -9-------------------------------|---------------------------------|
D -9-------------------------------|---------------------------------|
A -7-------------------------------|---------------------------------|
E -0-------------------------------|---------------------------------|

Instrumental Solo - Guitar I (top) and Guitar II (bottom):
----------------------------------------------------------

G Dsus
e ---------------------------------|-0---------------------------0-0-|
B ---------------------------------|-----3-----------------------0-0-|
G ---------------------------------|---------0-------------------0-0-|
D ---------0---------------0-------|-------------0---------------0-0-|
A -----2-------2-------2-------2---|-----------------0-------0-------|
E -3---------------3---------------|---------------------2-----------|

e -7--h8--p7---5--h7-------3--h5---|p3---2--h3--p2-------------------|---|
B ---------------------------------|-----------------3-------3-------|-0-|
G ---------------------------------|---------------------------------|---|
D ---------------------------------|---------------------------------|---|
A ---------------------------------|---------------------------------|---|
E ---------------------------------|---------------------------------|---|


At the Verses, repeat the chords: Em, C, G, & Dsus until the "In your head..." part,
then play E5, C5, G Dsus chords and repeat as needed.

Guitar Solo:
------------

e -7/8----5/7--------------|-7/8----5/7---7---7---7--|-7/8-----5/7---7---7---7--|
B -------------------------|-------------------------|--------------------------|
G -------------------------|-------------------------|--------------------------|
D -------------------------|-------------------------|--------------------------|
A -------------------------|-------------------------|--------------------------|
E -------------------------|-------------------------|--------------------------|


e -7/8-----5/7--7-7-7-7-7-7|-7/8-----5/7--7---7---7-7|-7/8-----5/7--7---7---7-7|
B --------------7-7-7-7-7-7|-7/8-----5/7--7---7---7-7|-7/8-----5/7--7---7---7-7|
G -------------------------|-------------------------|-------------------------|
D -------------------------|-------------------------|-------------------------|
A -------------------------|-------------------------|-------------------------|
E -------------------------|-------------------------|-------------------------|


e -7/8-----5/7-------------|-7\5-----5------7-----10-|-10/12--12\10-10---10--10|
B -7/8-----5/7-------------|-7\5-----5------7-----10-|-10/12--12\10-10---10--10|
G -------------------------|-------------------------|-------------------------|
D -------------------------|-------------------------|-------------------------|
A -------------------------|-------------------------|-------------------------|
E -------------------------|-------------------------|-------------------------|


e -10/12--12\10--10---10-10|-10\7----7---------------|-7\5----5/7----7------7-7|
B -10/12--12\10--10---10-10|-10\7----7---------------|-7\5----5/7----7------7-7|
G -------------------------|-------------------------|-------------------------|
D -------------------------|-------------------------|-------------------------|
A -------------------------|-------------------------|-------------------------|
E -------------------------|-------------------------|-------------------------|


e -7/8-----5/7----7-----7-7|-7/8-----5/7----7-----7-7|-7/8----5/7--------------|
B -7/8-----5/7----7-----7-7|-7/8-----5/7----7-----7-7|-7/8----5/7--------------|
G -------------------------|-------------------------|-------------------------|
D -------------------------|-------------------------|-------------------------|
A -------------------------|-------------------------|-------------------------|
E -------------------------|-------------------------|-------------------------|


e -7\5------5------------5-|-7-----------------------|
B -7\5------5------------5-|-7-----------------------|
G -------------------------|-9-----------------------|
D -------------------------|-9-----------------------|
A -------------------------|-7-----------------------|
E -------------------------|-0-----------------------|

I Love Rock N Roll Tabs by Joan Jett



Guitar 1 - E A D G B E
Guitar 2 - E A D G B E
Bass     - E A D G

B= bend
~= vibrato
H= Hammer on 
/= slide to
X = muted tone
~T  = Tremlo vibrato

Guitar 1+2
    E E     E E           A A     B B 
e|-------------------------------------------------|e
B|-------------------------------------------------|B
G|------------------------2-2-----4-4--------------|G
D|--2-2-----2-2-----------2-2-----4-4--------------|D
A|--2-2-----2-2-----------0-0-----2-2--------------|A
E|--0-0-----0-0-0H3B~-------------------0H3B~------|E


    E E     E E           A A     B A 
e|-------------------------------------------------|e
B|-------------------------------------------------|B
G|------------------------2-2-----4-2--------------|G
D|--2-2-----2-2-----------2-2-----4-2-2---------2--|D
A|--2-2-----2-2-----------0-0-----2-0-2---------2--|A
E|--0-0-----0-0-0H3B~-----------------0---------0--|E

Guitar 1 Riff
e|--------------------------------|e
B|---15B--12~---------------------|B
G|------------14--12~-------------|G
D|--------------------------------|D
A|--------------------------------|A
E|--------------------------------|E

Guitar 2 Riff Played same time as guitar 1

e|--------------------------------|e
B|--3P0---------------------------|B
G|-------2P0----------------------|G
D|-----------2~-------------------|D
A|--------------------------------|A
E|--------------------------------|E


Guitar 1+2
    E E             E E
e|-------------------------------------------------|e
B|-------------------------------------------------|B
G|-------------------------------------------------|G
D|--2-2-------------2-2----------------------------|D
A|--2-2-------------2-2----------------------------|A
E|--0-0-------------0-0----------------------------|E

Guitar 1 Riff Played same time as guitar 1
e|--------------------------------|e
B|---15B--12~---------------------|B
G|------------14--12~-------------|G
D|--------------------------------|D
A|--------------------------------|A
E|--------------------------------|E

Guitar 2 Riff

e|--------------------------------|e
B|--3P0---------------------------|B
G|-------2P0----------------------|G
D|-----------2~-------------------|D
A|--------------------------------|A
E|--------------------------------|E




Guitar 1+2
   E E              B B
e|-------------------------------------------------|e
B|-------------------------------------------------|B
G|------------------4--4---------------------------|G
D|--2-2-------------4--4---------------------------|D
A|--2-2-------------2--2---------------------------|A
E|--0-0--------------------------------------------|E



Guitar 1 Riff Played same time as guitar 1
e|--------------------------------|e
B|---15B--12~---------------------|B
G|------------14--12~-------------|G
D|--------------------------------|D
A|--------------------------------|A
E|--------------------------------|E

Guitar 2 Riff, same time as riff 1

e|--------------------------------|e
B|--3P0---------------------------|B
G|-------2P0----------------------|G
D|-----------2~-------------------|D
A|--------------------------------|A
E|--------------------------------|E



Guitar 1+2
    E E             E E
e|----------------------------------------|e
B|----------------------------------------|B
G|--2-2----4-4-----------------2~~~-------|G
D|--2-2----4-4---------2-2-----2~~~-------|D
A|--0-0----2-2---------2-2-----0~~~-------|A
E|---------------------0-0----------------|E


Drums + vocal....



guitar 1  + 2 

e|--------------------------------|e
B|--------------------------------|B
G|---4-4-4-4-4-4-4----------------|G
D|---4-4-4-4-4-4-4----------------|D
A|---2-2-2-2-2-2-2----------------|A
E|--------------------------------|E




All over again:
Guitar 1+2
    E E     E E           A A     B B 
e|-------------------------------------------------|e
B|-------------------------------------------------|B
G|------------------------2-2-----4-4--------------|G
D|--2-2-----2-2-----------2-2-----4-4--------------|D
A|--2-2-----2-2-----------0-0-----2-2--------------|A
E|--0-0-----0-0-0H3B~-------------------0H3B~------|E


    E E     E E           A A     B A 
e|-------------------------------------------------|e
B|-------------------------------------------------|B
G|------------------------2-2-----4-2--------------|G
D|--2-2-----2-2-----------2-2-----4-2-2---------2--|D
A|--2-2-----2-2-----------0-0-----2-0-2---------2--|A
E|--0-0-----0-0-0H3B~-----------------0---------0--|E

Guitar 1 Riff
e|--------------------------------|e
B|---15B--12~---------------------|B
G|------------14--12~-------------|G
D|--------------------------------|D
A|--------------------------------|A
E|--------------------------------|E

Guitar 2 Riff Played same time as guitar 1

e|--------------------------------|e
B|--3P0---------------------------|B
G|-------2P0----------------------|G
D|-----------2~-------------------|D
A|--------------------------------|A
E|--------------------------------|E


Guitar 1+2
    E E             E E
e|-------------------------------------------------|e
B|-------------------------------------------------|B
G|-------------------------------------------------|G
D|--2-2-------------2-2----------------------------|D
A|--2-2-------------2-2----------------------------|A
E|--0-0-------------0-0----------------------------|E

Guitar 1 Riff Played same time as guitar 1
e|--------------------------------|e
B|---15B--12~---------------------|B
G|------------14--12~-------------|G
D|--------------------------------|D
A|--------------------------------|A
E|--------------------------------|E

Guitar 2 Riff

e|--------------------------------|e
B|--3P0---------------------------|B
G|-------2P0----------------------|G
D|-----------2~-------------------|D
A|--------------------------------|A
E|--------------------------------|E




Guitar 1+2
   E E              B B
e|-------------------------------------------------|e
B|-------------------------------------------------|B
G|------------------4--4---------------------------|G
D|--2-2-------------4--4---------------------------|D
A|--2-2-------------2--2---------------------------|A
E|--0-0--------------------------------------------|E



Guitar 1 Riff Played same time as guitar 1
e|--------------------------------|e
B|---15B--12~---------------------|B
G|------------14--12~-------------|G
D|--------------------------------|D
A|--------------------------------|A
E|--------------------------------|E

Guitar 2 Riff, same time as riff 1

e|--------------------------------|e
B|--3P0---------------------------|B
G|-------2P0----------------------|G
D|-----------2~-------------------|D
A|--------------------------------|A
E|--------------------------------|E



Guitar 1+2
    E E             E E
e|----------------------------------------|e
B|----------------------------------------|B
G|--2-2----4-4-----------------2~~~-------|G
D|--2-2----4-4---------2-2-----2~~~-------|D
A|--0-0----2-2---------2-2-----0~~~-------|A
E|---------------------0-0----------------|E


Drums + vocal....



guitar 1  + 2 

e|--------------------------------|e
B|--------------------------------|B
G|---4-4-4-4-4-4-4----------------|G
D|---4-4-4-4-4-4-4----------------|D
A|---2-2-2-2-2-2-2----------------|A
E|--------------------------------|E



SOLO DURING CHORDS
GUITAR 2


e|-------------------------------------------------------------|e
B|-------------------------------------------------------------|B
G|--------------------4-----4-----4------2-2--4-4---------2~~~-|G
D|--2-----2-----2-----4-----4-----4------2-2--4-4--2-2----2~~~-|D
A|--2-----2-----2-----2-----2-----2------0-0--2-2--2-2----0~~~-|A
E|--0-----0-----0----------------------------------0-0---------|E



Solo
GUITAR 1
                      Tremlo down
e|-----------------------------|e
B|-----------------------------|B
G|----------------------7~~~---|G
D|--2-2-----------------6~~~---|D
A|--2-2-----------------7~~~---|A
E|--0-0--2B----2B--0-----------|E

e|------------------------12-----------------------|e
B|---------------------------------12-----12-------|B
G|---------9--11-----11B------11B---------11B------|G
D|----9/11-----------------------------------------|D
A|-------------------------------------------------|A
E|-------------------------------------------------|E


e|-----------------------------------|e
B|--------------------------12-------|B
G|---9----9H11------------9----------|G
D|-----11--------XX--9H11------------|D
A|-----------------------------------|A
E|-----------------------------------|E

e|----------------------------------------------------|e
B|----------------------------------------------------|B
G|--9-X-9/8---8-X-8/6---6-X-6/4---4-X-4/2----2-X-2/1--|G
D|----------------------------------------------------|D
A|----------------------------------------------------|A
E|----------------------------------------------------|E


e|--------------------|e
B|--------------------|B
G|--1-1-1-------------|G
D|--------4-2---2~----|D
A|------------4-------|A
E|--------------------|E


END OF SOLO


CONTINEU PLAYING THIS TILL END OF SONG:

GUITAR 1 + 2

Riff stops here.

    E E     E E           A A     B B 
e|-------------------------------------------------|e
B|-------------------------------------------------|B
G|------------------------2-2-----4-4--------------|G
D|--2-2-----2-2-----------2-2-----4-4--------------|D
A|--2-2-----2-2-----------0-0-----2-2--------------|A
E|--0-0-----0-0-0H3B~-------------------0H3B~------|E

I Love Rock N Roll Tab by Joan Jett

Joan Jett-"I Love Rock and Roll"



1|-------------------------------------------------------|
2|-------------------------------------------------------|
3|------------------------------2--2-----4--4------------|
4|---2--2---%---2--2------------2--2--%--4--4------------|
5|---2--2-------2--2------------0--0-----2--2------------|
6|---0--0-------0--0---3b(1/4)------------------3b(1/4)--|

1|----------------------------------------------------|
2|----------------------------------------------------|
3|------------------------------2--2-----4--2---------|
4|---2--2---%---2--2------------2--2--%--4--2--2--2---|
5|---2--2-------2--2------------0--0-----2--0--2--2---|
6|---0--0-------0--0---3b(1/4)-----------------0--0---|

           rake
1|----------___----------------------------------------------|
2|---------|--x|--15b--r15--12-------------------------------|
3|----------x------------------14-12~~/----------------------|
4|--9--9~---------2---0--------------------------------------|
5|--7--7~-------------------2--0-----------------------------|
6|--0--0~-------------------------0--------------------------|
     I saw him.....
        rake 
1|----------------------------------guitar-1----------------|
2|-------------------------------x--15b--r15--12------------|
3|-----------------------------x------------------14--12~~/-|
4|--2--2---------------9--9----------2----0-----------------|
5|--2--2---------------7--7-------guitar-2-----2---0--------|
6|--0--0---------------0--0----------------------------0----|
        dancing....              

        rake 
1|----------------------------------guitar-1----------------|
2|-------------------------------x--15b--r15--12------------|
3|-----------------------------x------------------14--12~~/-|
4|--2--2---------------9--9----------2----0-----------------|
5|--2--2---------------7--7-------guitar-2-----2---0--------|
6|--0--0---------------0--0----------------------------0----|        

1|---------------------|
2|---------------------|
3|--4--4---2--2--------|
4|--4--4---2--2--2-----|
5|--2--2---0--0--2-----|
6|---------------0-----|
                ^ ring for 8 beats
Chorus :
1|-------------------------------------------------------|
2|-------------------------------------------------------|
3|------------------------------2--2-----4--4------------|
4|---2--2---%---2--2------------2--2--%--4--4------------|
5|---2--2-------2--2------------0--0-----2--2------------|
6|---0--0-------0--0---3b(1/4)------------------3b(1/4)--|
 I love rock and roll.        So put another...

1|----------------------------------------------------|
2|----------------------------------------------------|
3|------------------------------2--2-----4--2---------|
4|---2--2---%---2--2------------2--2--%--4--2-%%-2--2-|
5|---2--2-------2--2------------0--0-----2--0----2--2-|
6|---0--0-------0--0---3b(1/4)-------------------0--0-|
             Ow! 
  rake       
1|---------------------------------|      
2|----x--15b--r15--12--------------|     
3|--x------------------14--12~~/---|    
4|---------------------------------|  
5|---------------------------------|  
6|---------------------------------|
       
Solo :                             
1|---------------------------------/----------------------\-|
2|----------------------------------------------------------|
3|---------------------------------7~~~~~~~~~~~~~~~~~~~~~~--|
4|---------------------------------6~~~~~~~~~~~~~~~~~~~~~~--|
5|----------------------------------------------------------|
6|--0--x--x--2b(1/2)-r2--2b(1/2)----------------------------|

          full 
1|-------------------12------------------------------^------|
2|-----------------------------12------------12--12b^-------|
3|---------9--11b~~------11b~-------11-------9---9---h11----|
4|-/9--11-------------------------------9h11----------------|
5|----------------------------------------------------------|
6|----------------------------------------------------------|

1|----------------------------------------------------------|
2|----------------------------------------------------------|
3|-------9---9-9-9-9/-8-8-8-8/-6-6-6-6/-4-4-4-4/-2-2-2-2/---|
4|--9h11----------------------------------------------------|
5|----------------------------------------------------------|
6|----------------------------------------------------------|

1|----------------------------------------------------------|
2|----------------------------------------------------------|
3|-1-1-1-1/-------------------------------------------------|
4|----------------------------------------------------------|
5|----------------------------------------------------------|
6|----------------------------------------------------------|

(2:35)
1|---------|----------|----------|----------|
2|---------|----------|----------|----------|
3|--9------|-----9----|------9---|----9.----|
4|---------|----------|----------|----------|
5|--7------|-----7----|------7---|----7.----|
6|---------|----------|----------|----------|

Tush Tab by Zz Top

TUSH (with solo)
by ZZ TOP

here is up to the second verse of "Tush" plus
this time I have included the first solo of the song.

---------------|------------|----------------|---------------| 
---------------|-----5------|----------------|---------------|
----5---5-3----|-5---5-3----|----5---5-3-----|-5---5-3-------|
----5---5-3----|-5---5-3----|----5---5-3-----|-5---5-3-------|
---------------|------------|----------------|---------------|
3-3---3------3-|---3------1/|3-3---3-----3-3-|---3-------3-1/|

        Ive been up Ive been down     take my word
---------------|-------------|----------------|--------------|
---------------|-----5-------|----------------|--------------|
----5---5-3----|-5---5-3-----|----5---5-3-----|---5---5-3----|
----5---5-3----|-5---5-3-----|----5---5-3-----|---5---5-3----|
---------------|-------------|----------------|--------------|
3-3---3------3-|---3-----3-1/|3-3---3-----3-1/|3-3--3-----3--|

 my way round     I aint askin for much
--------------|--------------|------------------------|-------------------|
---5----------|--------------|------------------------|-------------------|
---5---5-3----|---5---5-3----|------------------------|-------------------|
---5---5-3----|---5---5-3----|-------10----10---10----|-10----------------|
--------------|--------------|-10-10-12-12-13---12-12-|-10-10-------------|
-3---3------3-|-3---3------6-|-8--8-----------8-------|-8--8--0-0-1-1-2-2-|

     I said Lord take me downtown Im just lookin for some
----------------|---------------|-----------------|-----------------| tush.
----------------|---------------|-----------------|-----------------|
----5---5-3-----|-5---5-3---5---|-2-2-4-4-5-5-4---|-----------------|
----5---5-3-----|-5---5-3---5-0-|-0-0-0-0-0-0-0---|-5-5-7-7-5-5-7-0-|
----------------|---------------|-----------------|-3-3-3-3-3-3-3---|
3-3---3-----3-3-|---3-----------|-----------------|-----------------|

       Ive been bad...(into the second verse)
------------------|----------------|
------------------|----------------|
------------------|--------------0-|
------------------|---5-6-7------0-|
------7---8-8-7-7-|-5-3-4-5--------|
-/3-3---3-3-3-3-3-|-3--------------|


First solo:

----|------------------|-------------------|------------------------|
----|------------------|-------------------|-----------11/12--------|
----|-----12-12----12--|-12--12--12--12\10-|/12--12-----------------|
-12p|0/12--------------|-----12------------|--------12--------12----|
----|------------------|-------------------|---------------------12-|
----|------------------|-------------------|------------------------|

---------------------------|---------------3-|-----------------|
-11/12---------------------|----5\--/5---5---|-----------------|
----------12----------12\3-|-5------/5-------|-5---3---5--/3/3-|
-------12----12\10/12------|--X--------5-----|---5---5---5-----|
---------------------------|-----------------|-----------------|
---------------------------|-----------------|-----------------|

--------------------|---------------------|-------------------|
----/12-------------|---/12---------------|/7---6/7---------0-|
-0--/12------3P0--3P|0--/12---------------|/7\5-----7---7\5---|
----/12-------------|---/12---------12\7--|/7-------7---7\5---|
--------------------|---------------------|-------------------|
--------------------|---------------------|-------------------|

------------------|----------------------|------------------|
/5----------------|----------/11---------|------------------|
/5---3---5--/3-/3p|0--/12--------12\10---|/10---------------|
/5-5---0----------|--0----12----------12-|------------------|
-----------5------|----------------------|------------------|
------------------|----------------------|------------------|

--------------------------------|-------------------------------|
-------12----12----12----12-12\-|-------12-12-12\10-------12----|
--------------------------------|-------------------------------|
-10/12----12----12----12--------|-10/12-------------10/12----12-|
--------------------------------|-------------------------------|
--------------------------------|-------------------------------|

-------------------------------------|--------------------------|
-------12----12----12\10-------12----|-12\10---------10----12\--|
-------------------------------------|---------12-10-10-12-12\--|
-10/12----12----12-------10/12----12-|------10------------------|
-------------------------------------|--------------------------|
-------------------------------------|--------------------------|

--------------------|----------------|-------------------------------|
-/5---5----5----6---|----5--5--------|---------------/11-/11---------|
-/5---------------6\|5----------5\3--|-12-12-12\10----------12\10----|
--------------------|--5-------------|------------12--------12\10-12-|
--------------------|----------------|-------------------------------|
--------------------|----------------|-------------------------------|

---------------------------|----------------19-------------|
-------11-12------------20-|-20-20-20\18-------18\17-------|
-12-----------12--17/19----|-------------19----------17/19-|
----12--------12-----------|-------------19----------------|
---------------------------|-------------------------------|
---------------------------|-------------------------------|

-15-----------------------------|--------------------------|
---14\13-11/12-11/12---12\10----|-12-12-12\10--------------|
-----------------------12\10----|-12-12-12\10----12--12\10-|
-----------------------------12-|-------------12-----12\10-|
--------------------------------|--------------------------|
--------------------------------|--------------------------|

   Take me back...
------------------------|
------------------------|
---/12-----14------14/--|
-9----------------------|
------------------------|
------------------------|

Are You Gonna Go My Way Tab by Lenny Kravitz

Name: Carlos Espinoza

Tabs:  Lenny Kravitz:  Are You Gonna Go My Way?

     Riff 1: ---- 2x ----
        |-------------------------------------------3----|
        |-------------------------------------------3----|
  G 1   |-2-^4-^2-p0-------------2-^4-^2-p0--------------|
        |------------2---0-2----------------2---0-2------|
        |------------------------------------------------|
        |--------------0-------0--------------0----------|
  
     Riff 2: ---- 6x ----
        |-------------------------------------------3----|
        |-------------------------------------------3----|
  G 1   |-2-^4-^2-p0-------------2-^4-^2-p0--------------|
        |------------2---0-2----------------2---0-2------|
        |------------------------------------------------|
        |--------------0-------0--------------0----------|
        |                                                |
        |                                                |
        |------------------------------------------------|   
        |-10^12^10p8-------------10^12^10p8--------------|   
  G 2   |------------9---7-9----------------9---7-9------|   
        |------------------------------------------------|   
        |------------------------------------------------|   
        |------------------------------------------------|

|---------------------------------------------------------
|    Riff 3: ---- 4x ----
|       |------------------------------------------------|
|       |------------------------------------------------|
|  G 1  |-2-^4-^2-p0-------------2-^4-^2-p0--------------|
|       |------------2---0-2----------------2---0-2------|
|       |------------------------------------------------|
|       |--------------0-------0--------------0-------0--|
|
|       I was born long ago
|       I am the chosen I'm the one
|       I have come to save the day
|       And I won't leave until I'm done
|---------------------------------------------------------
|              -- 3x --         ||
|       |-----------------------||-------------------|
|       |-----------------------||-------------------|
|  G 1  |-5-^7-^5-p3------------||--5---4---3--2--4--|
|       |------------5-0-3-5--0-||-------------------|
|       |-----------------------||-------------------|
|       |-----------------------||-------------------|
|       |                                            |
|       |      -- 3x --         ||                   |
|       |-----------------------||-------------------|
|       |-13^15^13p11-----------||-------------------|
|  G 2  |------------12--10-12--||--12--10--9--10-12-|
|       |-----------------------||-------------------|
|       |-----------------------||-------------------|
|       |-----------------------||-------------------|
|
|        So that's why you've got to try
|        You've got to breathe and have some fun
|---------------------------------------------------------
|    Riff 3    2x
|
|        Though I'm not paid I play this game
|        And I won't stop until I'm done
|---------------------------------------------------------
    
|    Chorus:
|       |----0-------------------0--------------------|
|       |----0-------------------0--------------------|
|       |----7-------------------6--------------------|
|       |----9-------------------7--------------------|
|       |---------------------------------------------|
|       |---------------------------------------------|
|              But what I really want to know is

|       |------------------------------------------|
|       |-9-9-7-9---------------------9-9--12-9----|
|       |-9-9-7-9---------------------9-9--12-9----|
|       |-9-9-7-9---------------------9-9--12-9----|
|       |------------------------------------------|
|       |------------------------------------------|
|                 Are you gonna go my way

|       |----0---------------0------------------------|
|       |----0---------------0------------------------|
|       |----7---------------6------------------------|
|       |----9---------------7------------------------|
|       |---------------------------------------------|
|       |---------------------------------------------|
|            And I got to    got to know
|
|---------------------------------------------------------
       Riff 1    1x

       Riff 2    3x
|---------------------------------------------------------
       Riff 3    4x    
        I don't know why we always cry
        This we must leave and get undone
        We must engage and rearrange
        And turn this planet back to one
|---------------------------------------------------------
    
               -- 3x ---------  ||
        |-----------------------||-------------------|
        |-----------------------||-------------------|
        |-5-^7-^5-p3------------||--5---4---3--2--4--|
        |------------5-0-3-5--0-||-------------------|
        |-----------------------||-------------------|
        |-----------------------||-------------------|
        |                                            |
        |      -- 3x --------   ||                   |
        |-----------------------||-------------------|
        |-13^15^13p11-----------||--13--12--11-10-12-|
        |------------12--10-12--||-------------------|
        |-----------------------||-------------------|
        |-----------------------||-------------------|
        |-----------------------||-------------------|

        So tell me why we got to die                  
        And kill each other one by one
|---------------------------------------------------------
       Riff 3    2x    

        We've got to love and rub-a-dub
        We've got to dance and be in love
|---------------------------------------------------------

     Chorus
|---------------------------------------------------------

     Solo:
              12x in total --             -- ending with:
        |---------------------------------||-----------------|
        |-9-----7-------7-------5-5-7-5---||-----------------|
        |-9-----7-------7-------6-6-7-6---||-----------------|
        |-9-----7-------7-------7-7-7-7---||-----0-1---------|
        |---------------------------------||---4-------------|
        |---------------------------------||-----------------|
        (repeat 4x by itself, then 8x under solo

|---------------------------------------------------------
        
      Outro:

        Riff 2    4x


        |-0----------0-------0-------------0-------|
        |-0----------0-------0-------------0-------|
        |-7----------6-------7-------------6-------|
        |-9----------7-------9-------------7-------|
        |------------------------------------------|
        |------------------------------------------|

|---------------------------------------------------------

        |------------------------------------------|
        |-9-9-7-9---------------------9-9--7--9----|
        |-9-9-7-9---------------------9-9--7--9----|
        |-9-9-7-9---------------------9-9--7--9----|
        |------------------------------------------|
        |------------------------------------------|
                  Are you gonna go my way


        |-0---------------0------------------------|
        |-8---------------7------------------------|
        |-7---------------6------------------------|
        |-9---------------8------------------------|
        |------------------------------------------|
        |------------------------------------------|
            'cause Baby I got to know


        

       
--  Solo --


E-|--------------------------------------------------------------------|
B-|--------------------------------------------------------------------|
G-|----------12h14p12vvvbbb--------------------------------------------|
D-|-14vvvv------------------14p12-12--14-------------------------------|
A-|--------------------------------------12b14--12---------------------|
E-|------------------------------------------------15---12-10-12-12sss-|
                  
E-|-----------------------------------------------------------------------|
B-|------------------------------------------------------17----15s17vvvvv-|
G-|-----------------------9h11b13----9h11p9----9h11sss16----16------------|
D-|------9---11p9----9h11-------------------11----------------------------|
A-|--s11----------11------------------------------------------------------|
E-|-----------------------------------------------------------------------|
                                         
E-|-----------------------------15--17b19vvv--17b19vv-17b19vv-17b19vvv-|
B-|-17vvvvvvvvv19p17vvvv17vv17vvv--------------------------------------|
G-|--------------------------------------------------------------------|
D-|--------------------------------------------------------------------|
A-|--------------------------------------------------------------------|
E-|--------------------------------------------------------------------|
                                                                               
E-|-17b19rb17p15-----------------------------|
B-|--------------17vv-----17vv-----17b20vvv--|
G-|------------------------------------------|
D-|------------------------------------------|
A-|------------------------------------------|
E-|------------------------------------------|
                                                                               
E-|-----------------------------------------------------------------|
B-|--17b20v--17b20v--17b20v--17b20v--17b20v--17b20rb17p15----15--17-|
G-|-------------------------------------------------------16--------|
D-|-----------------------------------------------------------------|
A-|-----------------------------------------------------------------|
E-|-----------------------------------------------------------------|

E-|---------------------------------12----------12----------------|
B-|------------------------------------12-15b17----15p12----------|
G-|-16p14p12----12h14p12-----14b16-----------------------14p12----|
D-|----------14----------14------------------------------------14-|
A-|---------------------------------------------------------------|
E-|---------------------------------------------------------------|
                                                                               
E-|-12----------12--------------------------|
B-|----12-15b17----15p12--------------15p12-|
G-|----------------------14p12--14b16-------|
D-|-----------------------------------------|
A-|-----------------------------------------|
E-|-----------------------------------------|

E-|-------12-------12--------15p12----12------------------------------|
B-|-15b17----15b17----15b17--------15------15p12----15--12------------|
G-|----------------------------------------------14---------14p12--14-|
D-|-------------------------------------------------------------------|
A-|-------------------------------------------------------------------|
E-|-------------------------------------------------------------------|
                                                 
E-|-----------------------------|
B-|-----------------------------|
G-|-12b14rb12p9---12vvvvvvvvvv--|
D-|-----------------------------|
A-|-----------------------------|
E-|-----------------------------|

Messages les plus consultés