Im Going Home Ten Years After Alvin Lee tabs

Im Going Home by Ten Years After

This was taken from Woodstock 69' performance and other live MP3's.
Alvin Lee is one crazy man. He plays fast and with amazing clarity. 
This is my humble attempt at his song. It is pretty right on.

This song is very difficult to master, but well worth the time.

Notes -

Intro: Blues/Pentatonic scales. Very fast! There is a lot of movement between strings
and there is also a lot of stretching. You will have to listen to the song extremely
carefully and many times before mastering this signature Alvin Lee 'lick'. He seems to
change it every time he plays it live though.

Verse: The all too familiar boogie-woogie rhythm! Pretty easy to comprehend.

Chorus: Some more fast licks. It is pretty repetitive though.

Solo: Look down below . . .

Other: Use light distortion. Just follow along with the song ya'll!

Intro - 
----------------------------------------------5--|
------------------------------------------5-7----|
---5-7-8-7-5-7-5---7---5-7-5----------4-5--------|
-7---------------7---7-------7-5-7--7------------|
-------------------------------------------------|
-------------------------------------------------|

-----8-10-11-10-8-10-8----8----------|
-10b-------------------10---10-8-10--|
-------------------------------------|
-------------------------------------|
-------------------------------------|
-------------------------------------|

-8-11-8-10-8-----8-11-8-10--8-----8-11-8-10-8-----|
-------------10----------------10-------------10--|
--------------------------------------------------|
--------------------------------------------------|
--------------------------------------------------|
--------------------------------------------------|

-----------------5----------------------|
----------------------------------------|
-9-8-5-7-5----7b---8-7-5-7-5---5--------|
-----------7-----------------7---7-5-7--|
----------------------------------------|
----------------------------------------|

----------------------------5-------------------5--|
--------------------------------------------5-7----|
--5-7-8-7-5-7-5---5-----7b----8-7-5-----5-6--------|
-7---------------7------------------5-5------------|
---------------------7-----------------------------|
---------------------------------------------------|

------------------|
-8----------------|
---8-7-5-6--------|
-----------5------|
-------------7-7--|
------------------|


Repeat the intro with some variations.


Chorus - "I'm Going Home . . ."  "To see my baby . . ."
--------------------------------|------------------------------|
-----7-8-10b-10b-------7-8-10b--|------7h8-10b-10b------8-10b--|
-9b----------------9b-----------|--9b---------------9b---------|
--------------------------------|------------------------------|
--------------------------------|------------------------------|
--------------------------------|------------------------------|
                                           
                                   
Verse - (Boogie-Woogie Baby!)
------------------------------------------|
------------------------------------------|
------------------------------------------|
-2-4--2-4--2-4--2-4---2-4--2-4--2-4--2-4--|
-0-0--0-0--0-0--0-0---0-0--0-0--0-0--0-0--|
------------------------------------------|               

------------------------------------------|
------------------------------------------|
-2-4--2-4--2-4--2-4-----------------------|
-0-0--0-0--0-0--0-0---2-4--2-4--2-4--2-4--|
----------------------0-0--0-0--0-0--0-0--|
------------------------------------------|
                                                                              
------------------------------------------|
------------------------------------------|
-4-6--4-6--2-4--2-4-----------------------|
-2-2--2-2--0-0--0-0---2-4--2-4--2-4--2-4--|
-0-0--0-0-------------0-0--0-0--0-0--0-0--|
------------------------------------------|
                                                                              
Then go into the chorus

Then the verse

Then the solo - Use the basic blues/pentatonic scales with lots of speed
                He bases the solo off off the intro passages.

Ten Years After I'd Love To Change The World tabs

Ten Years After
I'd Love To Change The World

Tuning: Standard

   Em            Gmaj             Am             Cmaj      B7
E|-----------------------3-------------------------------------------|
B|-------------------------0-------------1-------------1---------0---|
G|-------0-------------0---------------2-------------0---0-----2-----|
D|-----2-------------0---------------2-------------2---------1-------|
A|---2-------------2---------------0-------0-1-2-3---------2---------|
E|-0-------0-1-2-3---------------------------------------------------|

   Em            Gmaj             Am             Cmaj      B7
E|-----------------------3-------------------------------------------|
B|-------------------------0-------------1-------------1---------0---|
G|-------0-------------0---------------2-------------0---0-----2-----|
D|-----2-------------0---------------2-------------2---------1-------|
A|---2-------------2---------------0-------0-1-2-3---------2---------|
E|-0-------0-1-2-3---------------------------------------------------|

   Em           Gmaj          Am             Cmaj      B7
E|-0--0--0------3--3--3-------0--0--0------------------2--2--2------|
B|-0--0--0------0--0--0-------1--1--1-------1--1--1----0--0--0------|
G|-0--0--0------0--0--0-------2--2--2-------0--0--0----2--2--2------|
D|-2--2--2------0--0--0-------2--2--2-------2--2--2----1--1--1------|
A|-2--2--2------2--2--2-------0--0--0-------3--3--3----2--2--2------|
E|-0--0--0------3--3--3-------0--0--0-------------------------------|



Alternate Chords to use
   Em          G           Am          C             B7
E|------------------------------------------------------------------|
B|-0--0--0-----3--3--3-----5--5--5-----8---8---8-----7--7--7--------|
G|-0--0--0-----4--4--4-----5--5--5-----9---9---9-----8--8--8--------|
D|-2--2--2-----5--5--5-----7--7--7-----10--10--10----7--7--7--------|
A|-2--2--2-----5--5--5-----7--7--7-----10--10--10----9--9--9--------|
E|-0--0--0-----3--3--3-----5--5--5-----8---8---8-----7--7--7--------|

Good Morning Little Schoolgirl - Ten Years After tabs

Good Morning Little Schoolgirl - Ten Years After

This is based off of the Live at Fillmore version.

Intro and main riff:
|-----------------|------------------|
|-----------------|------------------|
|-----------------|------------------|
|-0-2-2-2-2-0-----|------------------|
|-------------2---|-2----------------|
|-----------------|-----0---3---0----|

|-----------------|-------------------|
|-----------------|-------------------|
|-----------------|-------------------|
|-0-2-2-2-2-0-----|-------------------|
|-------------2---|-2-----------------|
|-----------------|-----0---3---/12\--|play this 2 times

Verse 1:
|-----------------------|-----------------------|
|-----------------------|------------12b--------|
|-----------------------|------------12b--------|
|-12-14-14-14-14-12-----|-----------------------|
|-------------------14--|-14--------------------|
|-----------------------|------12----------12---|
this is played 12 times total; 4 without singing
and then 8 times with singing

Chorus 1:
|-----------------|---7-------------|
|-----------------|---7-------------|
|-----------------|---8-------------|
|-----------------|---9-----9---7---|
|-9-9-9-9-9-9-9-9-|-9-9-9-9-9---7---|
|-7-7-7-7-7-7-7-7-|-7-7-7-7-7---5---|
  * * * * * * * *   *   * *
|------------------------------|-------------------|
|---------15-------------------|-------------------|
|-----14b-----14p12------14-12-|-------------------|
|-5------------------14--------|-14v---------/19\--|
|-5----------------------------|-------------------|
|-3----------------------------|-------------------|

verse 2:
|-----------------|------------------|
|-----------------|------------------|
|-----------------|------------------|
|-0-2-2-2-2-0-----|------------------|
|-------------2---|-2----------------|
|-----------------|-----0---3---0----|

|-----------------|-------------------|
|-----------------|-------------------|
|-----------------|-------------------|
|-0-2-2-2-2-0-----|-------------------|
|-------------2---|-2-----------------|
|-----------------|-----0---3---/12\--|
this is played 2 times just like the intro
and then 4 more times. The /12\ is kind of hard
to hear, I think he plays it sometimes and
sometimes he doesn't

Chorus 2:
|-----------------|---7-------------|
|-----------------|---7-------------|
|-----------------|---8-------------|
|-----------------|---9-----9---7---|
|-9-9-9-9-9-9-9-9-|-9-9-9-9-9---7---|
|-7-7-7-7-7-7-7-7-|-7-7-7-7-7---5---|
  * * * * * * * *   *   * *
|------------------------------|-------------------|
|-----15--15-------------------|-------------------|
|-----14b-----14p12------14-12-|-------------------|
|-5------------------14--------|-14v---------/19\--|
|-5----------------------------|-------------------|
|-3----------------------------|-------------------|

then:
|-----------------|------------------|
|-----------------|------------------|
|-----------------|------------------|
|-0-2-2-2-2-0-----|------------------|
|-------------2---|-2----------------|
|-----------------|-----0---3---0----|

|-----------------|-------------------|
|-----------------|-------------------|
|-----------------|-------------------|
|-0-2-2-2-2-0-----|-------------------|
|-------------2---|-2-----------------|
|-----------------|-----0---3---/12\--|
play this twice just like the intro then play
the part below 4 times.

|-----------------------|-----------------------|
|-----------------------|------------12b--------|
|-----------------------|------------12b--------|
|-12-14-14-14-14-12-----|-----------------------|
|-------------------14--|-14--------------------|
|-----------------------|------12----------12---|

Here's the beginning of the solo. The spacing is not
supposed to accurate here, I'm just putting the notes.

|----------------------------------------------------|
|----------------------------------------------------|
|----------------------------------------12v---------|
|12-14-14-14-14p12-----------------12-14-------------|
|-----------------14-14p12---12-14-------------------|
|-------------------------15-------------------------|

|------------------------------------------------------------|
|--------------12-15p12--------------------------------------|
|-----12-14v-----------14p12--12-14--12------------12--------|
|-/14-----------------------14-----------14v---/14----14v----|
|------------------------------------------------------------|
|------------------------------------------------------------|

|----------------------------------------------|
|-----12h15p12-15b--15rp12-15b-15p12-----------|
|-/14-------------------------------14-12------|
|-----------------------------------------14---|
|----------------------------------------------|
|----------------------------------------------|

then some really fast stuff i can't figure out

he repeats this lick a few times through out the solo.
|---------12--15p12-14p12-15p12-14p12-15p12-14p12-15p12-14p12-|
|-12--15------------------------------------------------------|
|-------------------------------------------------------------|
|-------------------------------------------------------------|
|-------------------------------------------------------------|
|-------------------------------------------------------------|

|-15p12-14p12-15p12-14p12-15p12-14p12-15p12-14p12-15b---------|
|-------------------------------------------------------------|
|-------------------------------------------------------------|
|-------------------------------------------------------------|
|-------------------------------------------------------------|
|-------------------------------------------------------------|

This is played a few times at the end:
|---------------------------------------------|
|---------------------------------------------|
|---------------------------------------------|
|------12-----12-----12-----12----------------|
|-12h14--12h14--12h14--12h14--14p12\10--------|
|---------------------------------------12v---|

sorry i don't have anymore. The solo is pretty long
and its hard to figure out. Just keeping playing in
the E minor pentatonic and E blues.

After the solo Alvin plays the main riff palm muted then
not palm muted, then the chorus then another solo at
the end. You'll figure it out.

Choo Choo Mama Alvin Lee tabs

Choo Choo Mama 
Author: Alvin Lee 
Band: Ten Years After  
Interpreted by Steve Bander  
Reprinted from ROCK ON 

       E------3~~~-----0-------------------------------------------------------
      B------x--------3h5~~~--3-----------------------------------------------
      G--------------------------3\2--0-----2--0------------------------------
      D----------------------------------2--------2p0-------------------------
      A------------------------------------------------2p1p0-----0------------
      E------------0------------------------------------------3-----3^--3----- 

      E-----------------------------------------------------------------0-----
      B-----------------------------------------------------------------0-----
      G---------------------------0--2/3\2--0-----0---------------------------
      D--------------------0h1h2---------------2-----2p0----------------------
      A-------------0h1h2---------------------------------2p1p0---------------
      E---^--3^--0-----------------------------------------------3^--0-------- 

      E maj                Rhythm Riff  
      E---3/-123-----0--------------------------------------------------------
      B---3-/1\3-----0--------------------------------------------------------
      G-----------------------------------------------------------------------
      D-----------------------------------------------2-----------------------
      A--------------------------2--2-----2--4--2--4--2-----2--4-----2--2-----
      E-----------0--------------0--0-----0--0--0--------0--------0--0--0----- 

      E---------------------------------------------------||--r---------------
      B---------------------------------------------------||--e---------------
      G---------------------------------------------------||--s---------------
      D------2-----------------------2--------------------||--t---------------
      A---4--2-----2--4-----2--2--4--2-----2--4-----2--2--||------------------
      E---------0--------0--0--0--------0--------0--0--0--||------------------ 

      1st Solo - Bridge Pickup  
      E--------3--------------------3--5--5/6\5-3-----5-----3-----------------
      B-----------5~~~--3--5-----5-------------p---5-----5-----5--3-----------
      G---2/4--------------------------------------------------------3\2------
      D-----------------------------------------------------------------------
      A-----------------------------------------------------------------------
      E----------------------------------------------------------------------- 

      A maj  
      E-------------------------------------|---------------------------------
      B-------------------------------------|---------------------------------
      G---p0--2--0--1-----------------------|---------------------------------
      D----------------2--------------------|----------2--4--4^--2--4---------
      A-------------------2--1--0-----------|-----3h4------------------4------
      E----------------------------0--3--4--|--5------------------------------ 

      E maj G maj  
      E------------|------------------------------------------|---------------
      B------------|------------------------------------------|---------------
      G------------|------------------------------------------|---------------
      D---2--4-----|--2--2-----------------------------2--4^--|--2--4--2------
      A------------|--------5\4--2---------------2--4---------|---------------
      E------------|----------------3h4--0--3h4---------------|--------------- 

      A maj  
      E---------------------------|--3-----3--5--5/6\5p3-----5--3--|----------
      B---------------------3--5--|-----5-----------------5--------|----------
      G-------------0--2/4--------|--------------------------------|----------
      D---4^--4--2----------------|--------------------------------|----------
      A---------------------------|--------------------------------|----------
      E---------------------------|--------------------------------|---------- 

      E Maj Exaggerated Vibrato2nd Solo (Neck Pickup) 
      E-----------0---------------------||----------(0)-----------------------
      B---5\----------------------------||--12--------------------------------
      G--------------2^~~~~~~--0--------||--12------------------12--14^-------
      D---------------------------2--0--||------14-------12/14----------------
      A---------------------------------||------------------------------------
      E--------0------------------------||------------------------------------ 


      E---12----------12-----------12--12-------12--12-------12---------------
      B-------15--12------12--15^----------15^----------15^------15^--15------
      G-----------------------------------------------------------------------
      D-----------------------------------------------------------------------
      A-----------------------------------------------------------------------
      E----------------------------------------------------------------------- 


      release A maj  
      E----------------------------------------|--------------------15--17----
      B---12---------------------------12------|------------15--17------------
      G-------14^--14--12------14------12------|-----14/16--------------------
      D--------------------14------14------14--|------------------------------
      A----------------------------------------|------------------------------
      E----------------------------------------|------------------------------ 

      E maj  
      E---15----------|------------------------------------------------12-----
      B-------17--15--|--17~~~--15----------------14--12---------------12-----
      G---------------|-------------15\14p12------14--12------12--14^---------
      D---------------|-----------------------14----------14------------------
      A---------------|-------------------------------------------------------
      E---------------|------------------------------------------------------- 

      G maj A maj  
      E-------12-----|-----15^--15--12----------12--|-------------------------
      B---15---------|------------------15--12------|--15---------------------
      G--------------|------------------------------|------15\14p12--14p12----
      D--------------|------------------------------|-------------------------
      A--------------|------------------------------|-------------------------
      E--------------|------------------------------|------------------------- 


      E Maj Quick slide - don't pick  
      E-------------------|------------12~~~----------------------------------
      B-------12--14--12--|----------------------5/17\5/17--------------------
      G-------12--14--12--|---------------------------------------------------
      D---14--------------|--14\-------------------------------------12/14----
      A-------------------|---------------------------------------------------
      E-------------------|--------12----------------------------------------- 


      E-----------------------------------------------------------------------
      B---12--14--12---------------------------------------------------15-----
      G---12--14--12-------------12--14^--14p12------14---------14/16---------
      D---------------14-----14------------------14------14-------------------
      A-----------------------------------------------------------------------
      E----------------------------------------------------------------------- 


      E--------15----------------15-------------------15------------15h17-----
      B---h17-------------15h17----------------15h17--------------------------
      G------------14/16----------------14/16----------------14/16------------
      D-----------------------------------------------------------------------
      A-----------------------------------------------------------------------
      E----------------------------------------------------------------------- 


      Bend-Hold A maj  
      E---p15--17^--17^--17^--17^--|--17--15--17--15-------------15-----------
      B----------------------------|------------------17--15h17------17-------
      G----------------------------|------------------------------------------
      D----------------------------|------------------------------------------
      A----------------------------|------------------------------------------
      E----------------------------|------------------------------------------ 


      E maj  
      E---------------------------------------------|--------------12---------
      B---15----------------------------------------|-------12h15-------------
      G-------15\14p12--14--12------14--12------12--|--12^-------------12-----
      D-------------------------14----------14------|-------------------------
      A---------------------------------------------|-------------------------
      E---------------------------------------------|------------------------- 


      E-------------12--------------12--------------12------------------------
      B------12h15-----------12h15-----------12h15------15--------------------
      G---^-------------12^-------------12^-----------------15\14p12----------
      D---------------------------------------------------------------14------
      A-----------------------------------------------------------------------
      E-----------------------------------------------------------------------

        
      G maj  
      E-------------------------|--15------15--17^--17--15--17--15------|-----
      B---14-------------15h17--|------17---------------------------17--|-----
      G---14------14/16---------|---------------------------------------|-----
      D-------14----------------|---------------------------------------|-----
      A-------------------------|---------------------------------------|-----
      E-------------------------|---------------------------------------|----- 


      A maj E maj  
      E----------15-------------------------------------------|-----0---------
      B---15h17------17--15-----------------------14--12------|-----0---------
      G----------------------15\14p12--14p12------14--12------|--------2------
      D---------------------------------------14----------14--|---------------
      A-------------------------------------------------------|---------------
      E-------------------------------------------------------|--0------------

        
      Exaggerated Vibrato Boogie Section 12 bars only 
      E---------------------||------------------------------------------------
      B---------------------||------------------------------------------------
      G---^~~~~~~--0--------||------------------------------------------------
      D---------------2--0--||------------------------------------------------
      A---------------------||-----------14--14--16--14--14--14--16--14-------
      E---------------------||-----------12--12--12--12--12--12--12--12-------

        
      E-------12----------12----------12--------------------------------------
      B-------12----------12----------12--------------------------------------
      G-----------------------------------------------------------------------
      D-----------------------------------------------------------------------
      A---14------16--14------14--16------------14--14--16--14--14--14--16----
      E---12------12--12------12--12------------12--12--12--12--12--12--12----

        
      E-----------12----------12----------12----------------------------------
      B-----------12----------12----------12----------------------------------
      G-----------------------------------------------------------------------
      D-----------------------------------------------------------------------
      A---14--14------16--14------14--16---------14--14--16--14--14--14-------
      E---12--12------12--12------12--12---------12--12--12--12--12--12------- 


      A maj  
      E---------------|-----5--------5--------5-------------------------------
      G---------------|-------------------------------------------------------
      D---------------|-------------------------------------------------------
      A---16--14--14--|--7-----9--7-----7--9--------7--7--9--7--7--7--9--7----
      E---12--12--12--|--5-----5--5-----5--5--------5--5--5--5--5--5--5--5---- 


      E maj  
      E---|------12----------12----------12----------------12-----------------
      B---|------12----------12----------12----------------12-----------------
      G---|-------------------------------------------------------------------
      D---|-------------------------------------------------------------------
      A---|--14------16--14------14--16------------14--16------14--14--16-----
      E---|--12------12--12------12--12------------12--12------12--12--12----- 


      G maj A maj  
      E---|------------------------------|------------------------------------
      B---|--12--12--12--12--12--12--12--|--14--14--14--14--14--14--14--14----
      G---|--12--12--12--12--12--12--12--|--14--14--14--14--14--14--14--14----
      D---|--12--12--12--12--12--12--12--|--14--14--14--14--14--14--14--14----
      A---|------------------------------|------------------------------------
      E---|------------------------------|------------------------------------ 


      E maj  
      E---|--3\-----0-----------------------------|---------------------------
      B---|--\------0----------3--3---------------|--1215--15--15--1215-------
      G---|---------------2/4--------3\2p0--------|--1/16--16--16--1/16-------
      D---|---------------------------------2--0--|---------------------------
      A---|---------------------------------------|---------------------------
      E---|------0--------------------------------|--------------------------- 


      E-----------------------------------------------------------------------
      B---15--15--15--1215--15--15--15--1215--15--15--15--1215--15--1215------
      G---16--16--16--1/16--16--16--16--1/16--16--16--16--1/16--16--1/16------
      D-----------------------------------------------------------------------
      A-----------------------------------------------------------------------
      E----------------------------------------------------------------------- 


      E-----------------------------------------------------------------------
      B---15--1215--15--1215--15--1215--15--1215--15--1215--15--1215--15------
      G---16--1/16--16--1/16--16--1/16--16--1/16--16--1/16--16--1/16--16------
      D-----------------------------------------------------------------------
      A-----------------------------------------------------------------------
      E-----------------------------------------------------------------------

        
      A maj  
      E---|-------------------------------------------------------------------
      B---|--1/17--17--17--1/17--17--17--1/17--17--17--1/17--17--17--1/17-----
      G---|--1618--18--18--1618--18--18--1618--18--18--1618--18--18--1618-----
      D---|-------------------------------------------------------------------
      A---|-------------------------------------------------------------------
      E---|------------------------------------------------------------------- 


      E maj  
      E-----------------|-----------------------------------------------------
      B---17--1/17--17--|--1215--1215--1215--14--12---------14--12------------
      G---18--1618--18--|--1/16--1/16--1/16--14--12h13------14--12h13---------
      D-----------------|-------------------------------14-------------14-----
      A-----------------|-----------------------------------------------------
      E-----------------|----------------------------------------------------- 


      G maj A maj  
      E----------|-------12---------------------------|--15--15--12-----x-----
      B----------|-----------15-----------------------|--14--14--12-----------
      G------12--|--14^----------15\14p12------12h13--|-----------------------
      D----------|-------------------------14---------|-----------------------
      A----------|------------------------------------|-----------------------
      E----------|------------------------------------|----------------------- 


      E maj  
      E--------------------|--------------------------------------------------
      B---x----------------|--12--12------------------------------------------
      G------15\14p12------|--12--12------------------12--14/15\14p12---------
      D----------------14--|--------------12--14--14-------------------14-----
      A--------------------|----------14--------------------------------------
      E--------------------|-------------------------------------------------- 


      E-----------|-------12-------12-------12-------12-------12-------12-----
      B-----------|-------12-------12-------12-------12-------12-------12-----
      G---14--12--|--14^------14^------14^------14^------14^------14^---------
      D-----------|-----------------------------------------------------------
      A-----------|-----------------------------------------------------------
      E-----------|----------------------------------------------------------- 


      A maj  
      E--------12-------12-------12-------12-------|--12--15p12--15p12--15----
      B--------12-------12-------12-------12-------|--------------------------
      G---14^------14^------14^------14^------14^--|--------------------------
      D--------------------------------------------|--------------------------
      A--------------------------------------------|--------------------------
      E--------------------------------------------|-------------------------- 


      E---p12--12--15p12--12--15p12--12--15p12--12--15p12--12--15p12--12------
      B-----------------------------------------------------------------------
      G-----------------------------------------------------------------------
      D-----------------------------------------------------------------------
      A-----------------------------------------------------------------------
      E----------------------------------------------------------------------- 


      E---15p12--12--15p12--12--15p12--12--15p12--12--15p12--15p12--|---------
      B-------------------------------------------------------------|---------
      G-------------------------------------------------------------|---------
      D-------------------------------------------------------------|---------
      A-------------------------------------------------------------|---------
      E-------------------------------------------------------------|---------
       

      E maj  
      E---15^~~~~~~--15^~~~~~~--15--15^--15--15^--15--12h15p12------12--------
      B---------------------------------------------------------15------------
      G-----------------------------------------------------------------------
      D-----------------------------------------------------------------------
      A-----------------------------------------------------------------------
      E----------------------------------------------------------------------- 


      G maj  
      E---12--|-------12-------12--------------------|--12h15p12--------------
      B-------|--15^------15^--------------------12--|------------15p12-------
      G-------|--------------------15\14p12------12--|------------------------
      D-------|------------------------------14------|------------------------
      A-------|--------------------------------------|------------------------
      E-------|--------------------------------------|------------------------ 


      E maj  
      E--------------------------------------------|--------------------------
      B-----------------14--12---------------------|--------------------------
      G---15\14p12------14--12---------------------|--------2^--2--0--2--0----
      D-------------14----------14p12------12--14--|--------------------------
      A--------------------------------14----------|--------------------------
      E--------------------------------------------|--0----------------------- 


      Smack open chord several times with  
      E--------------------0--------------------------------------------------
      B--------------------0--------------------------------------------------
      G--------------------1--------------------------------------------------
      D---2-----0--2/------2--------------------------------------------------
      A------2-------------2--------x-----x-----x-----x-----x-----x-----------
      E--------------------0--------------------------------------------------

        
      open hand at approx 24th fret  
      E-------------------------------------3--5/6\5p3------------------------
      B--------------------------------3h5--------------5--3------------------
      G-----------------------0h1h2/4-------------------------3\2p0--2p0------
      D----------------0h1h2--------------------------------------------------
      A---------0h1h2---------------------------------------------------------
      E---0h3^---------------------------------------------------------------- 


      E---------------------------------------------------------------0h3-----
      B----------------------------------------------------------0h3----------
      G-----------------------------------------------------------------------
      D---2p0--------------------0h1h2-----0--2/3\2--0--2p0--2^---------------
      A--------2p1p0------0h1h2-----------------------------------------------
      E---------------3^------------------------------------------------------ 


      E---p0-----0h3p0-------------------------------------------------3------
      B-------3---------3-----------------------------------------3h5---------
      G--------------------3\2p0-----0--2/3\2p0-----0--2/3\2p0/4--------------
      D---------------------------2--------------2----------------------------
      A-----------------------------------------------------------------------
      E----------------------------------------------------------------------- 


      E---5^~~~~~~--3h5p3------------------------------------0--||------------
      B--------------------5--3--5~~~~~~--5^-----------------0--||------------
      G------------------------------------------------------0--||------------
      D------------------------------------------------------2--||------------
      A---------------------------------------------------2--2--||------------
      E---------------------------------------------------0--0--||------------ 
  

Albert Collins - Albert's Alley tabs

Subject: c/collins_albert/alberts_alley.tab
Date: Wed, 18 Jun 1997 19:04:29 -0500 (CDT)
From: letostak@ix.netcom.com

Albert Collins - Albert's Alley
from Showdown
letostak@ix.netcom.com (Judy Letostak)

This tab is NOT 100% accurate or complete.  We
are practicing musicians, not professional tabbers.
If we were, we'd be working for the guitar magazines.
Suggestions and comments are always welcome.  For
complaining and whining, call Dr. Laura. 

Tune to Eminor 6=E 5=B 4=E 3=G 2=B 1=E

------------------------------------------------
------------------------------------------------
---------------------------8h9------------------
-----8--8-----------------------------8--8------
-10--------10---------------------10--------10--
------------------------------------------------


------------------------------------------------
------------------------------------------------
-8h9--------------------------8--10--11p10p8----
------8------8-------------8------------------8-
---------10-----10------------------------------
------------------------------------------------


------------------------------------------------
-------------11h13~----11-----------------------
-8---8---------------------12-----10p8----------
-----8----------------------------------8-------
----10------------------------------------------
------------------------------------------------


------------------------------------------------
------------------------------------------------
------------------------------------------8h9--10
-11h12--11h12----8---------------------8--------
--------------------10--8-------8--10-----------
------------------------------------------------

  7x==
------------------------------------------------
------------------------------------------------
-10p9-----10--9--------------8--9---------------
-----------------8--------8---------------11h13-
----------------------10-----------11-13--------
------------------------------------------------

===============5x============
------------------------------------------------
------------------------------------------------
------------------------------------------------
--11------------------11h13---------------------
------13p11----11-13----------------------------
------------------------------------------------



------------------------------------------------
------------------------------------------------
------------------------------------------------
--11-----------------------8--------------------
------13p11-------------------------------------
------------------------------------------------

muted
repeat 10x
------------------------------------------------
----13--13-13-13-13-13-13-13-13-13-13-13--------
------------------------------------------------
------------------------------------------------
------------------------------------------------
------------------------------------------------


------------------------------------------------
-13-13-13-13-13-13-13-13-13----------13-13-13-13
----------------------------14-14---------------
----------------------------------8-------------
------------------------------------------------
------------------------------------------------


--------13bf-----13bf---13bf--11----------------
----------------------------------13~-----x-----
--14--------------------------------------8-----
--8---------------------------------------------
------------------------------------------------
------------------------------------------------

          release slightly
--13bf----13bf----------------------------------
------------------------------------------------
------------------------------------------------
------------------------------------------------
------------------------------------------------
------------------------------------------------


-11b(12)----------------------------------------
----------13~--13~--11-8------------------------
-------------------------11---------------------
-----------------------------11h12--8----8------
--------------------------------------10---10---
----------------------------------------------8-


                         =10x=
---------8---------8----------------------8-----
--8--10-----11p10--------11p10------11p8-11/13--
------------------------------------------------
------------------------------------------------
------------------------------------------------
------------------------------------------------


------------------------------------------------
-13~---13~----11--8---8--------------------8--8-
---------------------10-------------------------
-------------------------11h12--8----11p8-------
----------------------------------10------------
------------------------------------------------


-----8------------------------------------------
-11-----13--------------------------------------
------------------------------------------------
------------------------------------------------
------------------------------------------------
------------------------------------------------

===========4x================
------------------------------------------------
-13~~~~13~~~~~13~~~~~13~~~~~--------------------
------------------------------------------------
------------------------------------------------
------------------------------------------------
------------------------------------------------


------------------------------------------------
-11--13p11~---11~---8--8------------------------
--------------------------10p8-----8--10p8------
--------------------------------8-----------8---
------------------------------------------------
------------------------------------------------


------------------------------------------------
------------------------------------------------
-10bf--rb10p8-----8--10p8--8h9------10p8--------
---------------8----------------8----------11p8-
------------------------------------------------
------------------------------------------------


------------------------------------------------
------------------------------------------------
-10p8--8h9-----10p8---8h9-----10-------8h9------
------------8--------------8------8---------8---
------------------------------------------------
------------------------------------------------


------------------------------------------------
--------------------------8--------11/13--13~---
-10p8--8h9-----10b(11)p8-----10p8---------------
------------8-----------------------------------
------------------------------------------------
------------------------------------------------


------------------------------------------------
-13~-----11--8-----------------------------8----
----------------10-------------------------8----
--------------------11h12--8------8-------------
------------------------------10-----10p8-------
------------------------------------------------


------------------------------------------------
------------------------------------------------
----------------------------------------8-------
--11bf----11p8--------------------------8-------
----------------11p8--------------------8---10--
----------------------13--11--11b(12)-----------


------------------------------------------------
------------------------------------------------
-12---------------------------------------------
-11---11h12h13--13-13b(15)--11/12p8-----8-------
------------------------------------10-----10---
------------------------------------------------


------------------------------------------------
--8h10p8----------------------------------------
--8h10p8----------------------------------------
--8---------8--11--12--8---13--11h12--p8--------
------------------------------------------------
-----------------------------------------20--20\


------------------------------------------------
------------------------------------------------
-----8--10-----10bf--10bf~--10p8h9-----8h9--8h9-
--8---------8-----------------------8-----------
------------------------------------------------
------------------------------------------------



------------------------------------------------
------------------------------------------------
------------------------------------------------
-8----------------------------------------------
----11p8-----11---11--8-------------------------
----------8--------------13-13--11--\8----------


------------------------------------------------
-------13~--13--13-----11--8--------------------
-8----------------------------10----------------
----8---------------------------------11h12--8--
------------------------------------------------
------------------------------------------------


------------------------------------------------
------------------------------------------------
--------8--10b(11)rb10p8--10~-------------------
-----8-------------------------11/12--8------8--
-10--------------------------------------10-----
------------------------------------------------


------------------------------------------------
------------------------------------------------
---------8--10-----11-----10-----8-----11-----10
-----8----------8------8------8-----8------8----
-10--8------------------------------------------
------------------------------------------------


------------------------------------------------
------------------------------------------------
----8-----10-----8-----10-----8h9-----10--8-----
-8-----8------8-----8------8-------8------------
------------------------------------------------
------------------------------------------------


------------------------------------------------
--------------13~~~~~13~~~~~13~~~~~---11--8-----
-10p8----------------------------------------10-
-------8----------------------------------------
------------------------------------------------
------------------------------------------------


------------------------------------------------
----------------------------11~~~11~~~----------
------------------------------------------------
-11/12p8--------8-------------------------------
----------10p8------10--8-----------------------
------------------------------------------------

   ==============3x========
------------------------------------------------
-11~~~~11~~~~11~~~~11~~~~-----------------------
------------------------------------------------
------------------------------------------------
------------------------------------------------
------------------------------------------------


------------------------------------------------
--11--11/13--13b(16)--rb13----------------------
------------------------------------------------
------------------------------------------------
------------------------------------------------
------------------------------------------------

 ===============================2x===============
------------------------------------------------
-13~~13~~~13~~~~----13~~~13~~~---13~~13~~13~~13~~
------------------------------------------------
------------------------------------------------
------------------------------------------------
------------------------------------------------


------------------------------------------------
-13~~13~~13~~--11--8----------------------------
----------------------10---8--10p8-----10bf--10-
------------------------------------8-----------
------------------------------------------------
------------------------------------------------


------------------------------------------------
----------------------------11-13p11~~11~~~~----
---------------------/11p8----------------------
-11/12--8------11-8-----------------------------
-----------11-----------------------------------
------------------------------------------------


------------------------------------------------
---------------11bf----8------8-----------------
-12--10p8-----------------8------11p8-----8-----
-----------8---------------------------8--------
------------------------------------------------
------------------------------------------------


------------------------------------------------
------------------------------------------------
-10h12p10--12p10p8-----10~----------------------
--------------------8--------11/12--8------8----
---------------------------------------10-------
------------------------------------------------


------------------------------------------------
------------------------------------------------
------------------------------------------------
----------------11h13---------------------------
-10--8--11--13----------------------------------
------------------------------------------------

=================2x====================
------------------------------------------------
------------------------------------------------
------------------------------------------------
-11--------------------------11h13--------------
-----13p11-----------11--13---------------------
------------------------------------------------


------------------------------------------12----
------------------------------------------13----
------------------------------------------------
--11--------------------11h13-11----------------
------13p11------11-13------------13p11---------
------------------------------------------------


------------------------------------------------
------------------------------------------------
------------------------------------------------
----------11h13-----11---------11h12--11h12-----
--11--13----------------13p11-------------------
------------------------------------------------


------------------------------------------------
------------------------------------------------
------------------------------------------------
--8----------------11h13--11--------------------
-----10-----11-13-------------13p11-------------
------------------------------------------------


------------------------------------------------
---------13--13~--------------13---13~----------
------------------------------------------------
----8----------------------8--------------------
------------------------------------------------
------------------------------------------------


------------------------------------------------
----13---13~-------------------------13--13~----
------------------------------------------------
-8---------------15\11b(12)---8---8-------------
------------------------------------------------
------------------------------------------------


------------------------------------------------
------11~---------------------13--13~-----------
------------11p10p8-----------------------------
--8------------------8-----8--------------------
------------------------------------------------
------------------------------------------------


------------------------------------------------
------------------------------------11/13-------
-12-10p8----------------------------------------
----------8---8----------------------------11b(12)
----------------10p8---11-----------------------
---------------------------13p11p8--------------


------------------------------------------------
------------------------------------------------
--------------------------------x\--------------
--8h11------------------------------------------
--------11p8------------------------------------
--------------8--13--11b(12)--------------------


------------------------------------------------
--8---11/13--13--13~--13-13-8-------------------
--9---------------------------10p8---8h10-10p8--
--8--------------------------------8------------
-11---------------------------------------------
--8---------------------------------------------


------------------------------------------------
------------------------------------------------
----10bf----10bf---10p8-------------------------
-8-----------------------8----------------------
----------------------------8--8----------------
----------------------------------13--11b(12)---


------------------------------------------------
------------------------------------------------
------------------------------------------------
------------------------------------------------
--13~~~----13\----------------------------------
------------------------------------------------

===========================================================
h = hammeron                          ps = pick scrape
p = pulloff                           % = repeat phrase
~ = vibrato                           letostak@ix.netcom.com
b = bend                              + natural harmonic
/\ = Slide
* = Artificial Harmonic
x = ghost note
tr = trill
===========================================================



letostak@ix.netcom.com (Judy Letostak)
email for guitar and bass tabs

TOO TIRED Albert Collins tabs

                                 TOO TIRED
                       As recorded by Albert Collins
Gtr I (E A D G B E) - 'Albert' 
Intro
    Q=134
   4/4
    Gtr I
                                          ~~~~~~~~~~~~~~~~~~~~~~~~~~~~
        |-3-| |-3-|                                                   
|-3--|
     Q  E E E E E E a q    W              Q   Q   Q   Q     Q   Q   Q  E 
E E
||--/5-------------------|-----------||------------------|------------------8-|
||o-----8-5--------------|----------o||-/10--10--10--10--|-10--10--10--8-10---|
||----------8-7-5---5h6--|-----------||------------------|--------------------|
||----------------7------|-----------||------------------|--------------------|
||o----------------------|----------o||------------------|--------------------|
||-----------------------|-----------||------------------|--------------------|

                                  |-3-| |-3-|
   a     +Q   E. S  Q  Q    Q  Q  E E E E E E
|-10b12-(10)--8--8--------|----5--------------|
|------------------10-----|-------8-5---------|
|-------------------------|-----------8-7-5---|
|-------------------------|-----------------7-|
|-------------------------|-------------------|
|-------------------------|-------------------|
                          |-3-| |-3-|
  a E. a S S S E Q   Q    E E E E E e Q  a   +Q
|-----------------------|---------------------------|
|-----------------------|---------------------------|
|-5h6--5-6--------------|-2-2---5h6------7b9-(7)----|
|----------7p5------/4--|-----5-----7---------------|
|--------------7--------|---------------------------|
|-----------------------|---------------------------|
     |-3-|                               |-3-|                |-3-|
  Q  E E E E. S Q    Q  E. S +Q   S E.   E E E Q  Q  a E. S   E E E E. S H
|------------------|----5--5-(5)-------|--------------------|-----------------*|
|------------------|--------------5----|------------------5-|-----------------*|
|-7--5-------------|----------------7--|-5-----------5h7----|-5---------------*|
|------7-5-5--4----|-------------------|---7-5--------------|---7p5-7---------*|
|------------------|-------------------|--------------------|----------7------*|
|------------------|-------------------|--------------------|-----------------*|

ICE PICK Albert Collins tabs

ICE PICK
As recorded by Albert Collins
(From the 1978 Album ICE PICKIN')


Transcribed by www.mikesguitarsite.co.ukMusic by Albert CollinsGtr I (E A D G B E) -
 'Albert Collins - Lead w/dist'
Gtr I is written for standard tuning but Albert used F minor tuning 
with a capo see www.mikesguitarsite.co.uk/gear/albert_collins/
for more info on his gear/setup
Gtr II (E A D G B E) - 'Larry Burton - Rhythm clean electric'

Intro
    Q=92
   4/4
    Gtr I
    S S S S S S S S S S S S E S S   S S S S S S S S S S S S E S S
||--------------------------------|--------------------------------||
||o-------------------------------|-------------------------------o||
||--8s9-9-9-x-x-----x-x-7-8-9-----|-8s9-9-9-x-x--------------------||
||--7s8-8-8-----7-8-----------x-x-|-7s8-8-8-----7-8-----------x-x--||
||o-------------------------------|-----------------x-x-5-6-7-----o||
||--------------------------------|--------------------------------||


  Gtr I
            ~~~~~~~~~~~~~~~~~~~~~~~~~~~~~~~~~~~~~~~~~~~~~~~~
  E.     S  H.                        +H                +E     e    S S  S S
|----------------------------------|-----------------------------------------|
|-------11-13----------------------|-(13)--------------(13)---11-------------|
|----------------------------------|-------------------------------11p8-10---|
|----------------------------------|-----------------------------------------|
|----------------------------------|-----------------------------------------|
|----------------------------------|-----------------------------------------|
|
| Gtr II
| S S S  S  S  S S S S S S S E S S     S S S S S S S S   S  S  S S  E    S S
|----------------------------------|-----------------------------------------|
|----------------------------------|-----------------------------------------|
|-8s9-9--9--x--x-----x-x-7-8-9-----|---8s9-9-9-x-x---------------------------|
|-7s8-8--8-------7-8-----------x-x-|---7s8-8-8-----7-8-------------------x-x-|
|----------------------------------|---------------------x--x--5-6--7--------|
|----------------------------------|-----------------------------------------|
|-Rhy Fig 1

  H.                         E  S  S   a E    Q.            +Q.         E
|------------------------------------|--------------------------------------|
|------------------------------------|--------------------------------------|
|-8tr9-------------------------------|--------------------------------------|
|---------------------------------10-|-------10------------(10)-------------|
|------------------------------10----|-6s7----------------------------------|
|------------------------------------|--------------------------------------|
|
| S    S S S S S S S S S S S E  S  S     S S  S  S S S S S   S  S S S E S S
|------------------------------------|--------------------------------------|
|------------------------------------|--------------------------------------|
|-8s===9-9-9-x-x-----x-x-7-8-9-------|---8s9--9--9-x-x----------------------|
|-7s===8-8-8-----7-8------------x--x-|---7s8--8--8-----7-8--------------x-x-|
|------------------------------------|-----------------------x--x-5-6-7-----|
|------------------------------------|--------------------------------------|


   ~~                                                                     ~~~
   Q        Q          H             H             E    a      +E      S  E.
|----------11b11.5-----------------|-------------------13b15==(13)r---11---|
|-13-------------------------------|-------------------------------------13|
|----------------------------------|---------------------------------------|
|----------------------------------|---------------------------------------|
|----------------------------------|---------------------------------------|
|----------------------------------|---------------------------------------|
|
|  S S S S  E      S S S S S S E E   S S S S E S S S S          S   S  E     E
|----------------------------------|---------------------------------------|
|----------------------------------|---------------------------------------|
|--8-8-8-8--8----------------------|-8-8-8-8-8-----------------------------|
|--7-7-7-7--7----------x-x-5-6-7---|-7-7-7-7-7-----x-x----------5---6--7---|
|------------------7-8-------------|-----------7-8-------------------------|
|----------------------------------|---------------------------------------|


   ~~~
                                             |---3---|
   Q        S      +S   E   Q        a      +S   +S  S  E
|----------11b12==(11)r-------------------------------------|
|-13--------------------------------------------------------|
|-----------------------------------10b12==(10)r(10)p8------|
|------------------------------------------------------10---|
|-----------------------------------------------------------|
|-----------------------------------------------------------|
|
|  S S S S  S       S   S S S S S S          E          S S
|-----------------------------------------------------------|
|-----------------------------------------------------------|
|--8s9-9-9--x-------x-------x-x-7-8----------9--------------|
|--7s8-8-8--------------7-8-----------------------------x-x-|
|-----------------------------------------------------------|
|-----------------------------------------------------------|


  Q.             E   H
|-----------------------------------|
|-----------------------------------|
|-8tr9------------------------------|
|-----------------------------------|
|-----------------------------------|
|-----------------------------------|
|
| S    S S S S S S S S S S S E S S
|-----------------------------------|
|-----------------------------------|
|-8s===9-9-9-x-x--------------------|
|-7s===8-8-8-----7-8-----------x-x--|
|--------------------x-x-5-6-7------|
|-----------------------------------|


                         ~~
   a      +Q             Q      H
|-------------------------------------------|
|-13b15==(13)r----------11------------------|
|-------------------------------------------|
|-------------------------------------------|
|-------------------------------------------|
|-------------------------------------------|
|
|          S    S  S  S  E S  S S S S S E E
|-------------------------------------------|
|-------------------------------------------|
|---------10---10-10-10-10------------------|
|----------9----9--9--9--9------x-x-7-8-9---|
|--------------------------9-10-------------|
|-------------------------------------------|


               |-3-|            |--3---| |-3--|
  a  S E    S  S S S  S S S  S  S S    S S  S S  E
|------8------11p8---10---8------------------------|
|-8h10-----10------8----8---11-11p8------8---------|
|-------------------------------------10---10p8----|
|-----------------------------------------------10-|
|--------------------------------------------------|
|--------------------------------------------------|
|
|    S S S  S  E      S S S  S  S   S    E       E
|--------------------------------------------------|
|--------------------------------------------------|
|----8-8-8--8--8-----------------------------------|
|----7-7-7--7--7----------x--x--5---6----7---------|
|---------------------7-8--------------------------|
|--------------------------------------------------|


  H                  E    a  E    E E     Q.             E   H
|---------------------------------------|----------------------------------|
|---------------------------------------|----------------------------------|
|-8tr9----------------------------------|-8tr9-----------------------------|
|--------------------------------10-8---|----------------------------------|
|------------------------10h12----------|----------------------------------|
|---------------------------------------|----------------------------------|
|
| S    S S S S S S S S S     S S  E S S   S    S S S S S S S S S S S E S S
|---------------------------------------|----------------------------------|
|---------------------------------------|----------------------------------|
|-8s===9-9-9-x-x-----x-x-----7-8--9-----|-8s===9-9-9-x-x-------------------|
|-7s===8-8-8-----7-8----------------x-x-|-7s===8-8-8-----7-8-----------x-x-|
|---------------------------------------|--------------------x-x-5-6-7-----|
|---------------------------------------|----------------------------------|
                                                             end Rhy Fig 1-|

w/Rhy Fig 1
  a  E   E   Q       a  E   E   Q
|-8h10p==8----------------------------|
|--------------------8h10p==8---------|
|-------------------------------------|
|-------------------------------------|
|-------------------------------------|
|-------------------------------------|


  a E    e    a  E    e    S  S  S S  S  S  S S
|------------------------------------------------|
|------------------------------------------------|
|-8h9--------------------------------------------|
|-------10---10h12---10---------10---------10----|
|-------------------------10h12------10h12-------|
|------------------------------------------------|


                   ~~~~~~~~~
  Q       S  S  a  E    +Q         S S  a      +E
|-----------------------------------------------------|
|-----------11-11s13---(13)-------11p8----------------|
|--------------------------------------10b12==(10)r---|
|-----------------------------------------------------|
|-----------------------------------------------------|
|-----------------------------------------------------|


   |----3-----|
   S     S    S E   Q       H
|------------------------------------------|
|------------------------------------------|
|-10pb11p8---------------------------------|
|------------10----------------------------|
|------------------------------------------|
|------------------------------------------|


  a  E   E   Q     a  E   E   Q
|-8h10p==8------------------------|
|------------------8h10p==8-------|
|---------------------------------|
|---------------------------------|
|---------------------------------|
|---------------------------------|


  a E    e    a  E  e    S  S  S S  S  S  S S
|---------------------------------------------|
|---------------------------------------------|
|-8h9-----------------------------------------|
|-------10---10h12-10---------10---------10---|
|-----------------------10h12------10h12------|
|---------------------------------------------|


                          ~~~
  H               E    a  Q.
|------------------------------------|
|---------------------11s13----------|
|------------------------------------|
|------------------------------------|
|------------------------------------|
|------------------------------------|


                       |--3---|
   e    a      +E      S S    S E   H
|-------------------------------------------------|
|-11----------------------------------------------|
|------10b12==(10)r---10p8------------------------|
|----------------------------10-------------------|
|-------------------------------------------------|
|-------------------------------------------------|


  a  E     E     Q      a  E   E   Q
|-8h10p====8---------------------------|
|-----------------------8h10p==8-------|
|--------------------------------------|
|--------------------------------------|
|--------------------------------------|
|--------------------------------------|


  a E    e    a  E  e    S  S  S S  S  S  S S
|---------------------------------------------|
|---------------------------------------------|
|-8h9-----------------------------------------|
|-------10---10h12-10---------10---------10---|
|-----------------------10h12------10h12------|
|---------------------------------------------|


                               ~~~~~~~~~~
  Q        S      +E.       S  E.      Q
|---------13b15==(13)r-----11----------------|
|-----------------------------13------13-----|
|--------------------------------------------|
|--------------------------------------------|
|--------------------------------------------|
|--------------------------------------------|


                                 |--3---|
   a      +S   S  a      +E      S S    S  S S S  S S  S E E
|--------------------------------------------------------------||
|--------------------------------------------------------------||
|-10b12==(10)r-8-10b12==(10)r---10p8h==10-10-8-8---------------||
|------------------------------------------------10-8----7-----||
|-----------------------------------------------------10-------||
|--------------------------------------------------------------||


   ~~~~~~~~~~~~~~~~~~~~~
   S  E    S  +S   S  E  e  E  E      E
|---------------------------------------|
|-13-13---13-(13)-13-13-11-11-11b11.5---|
|---------------------------------------|
|---------------------------------------|
|---------------------------------------|
|---------------------------------------|
|
|  E    E      Q         Q     E      E
|---------------------------------------|
|---------------------------------------|
|--9----------------------------------8-|
|--8----------------------------------7-|
|---------------------------------------|
|--8----------------------------------7-|
|-Rhy Fig 2               end Rhy Fig 2-|

w/Rhy Fig 2 x6
                         |-3--|
  T  T T  T S S +S   S E S  S S  E  E a E
|-------------8-(8)-----------------------|
|------8------------11p8-8----------------|
|-8h10---10----------------10p8-----------|
|-------------------------------10-10-7s8-|
|-----------------------------------------|
|-----------------------------------------|


              ~~~~~~
   S      E   S +S  S  S S  E a     +E    E S S
|---------8---8-(8)-8---------9b10==(9)r--------|
|-11b11.5-------------11p8-11------------11-----|
|-----------------------------------------------|
|-----------------------------------------------|
|-----------------------------------------------|
|---------------------------------------------8-|


   S E   S +S  S  S S  a      +S   T  T  S. T a S S S S
|----8---8-(8)-8-----------------------------------------|
|-11-------------11p8------------------------------------|
|---------------------10b12==(10)r-8----10--8-8h9--------|
|------------------------------------10------------------|
|--------------------------------------------------------|
|-------------------------------------------------8---8--|


   S  E    S  +S   S  S  S  E  E a E S S
|----------------------------------------|
|----11---11-(11)-11-11----10-10-8s9-----|
|-10-12---12-(12)-12-12s10-10-10-8s9-----|
|----------------------------------------|
|----------------------------------------|
|--------------------------------------8-|


     ~~~~~~~~~~
                        |-3-|
   S E   S +S   S  S S  S S S  S T  T T  T  T T  S S
|----8---8-(8)---------------------------------------|
|-11-----------11-11p8----8--------------------------|
|----------------------10---8-10p8----8--------------|
|----------------------------------10---10----8------|
|------------------------------------------10---10---|
|--------------------------------------------------8-|


   a      +E.     a      +S   +S    S S  S  S S  E a S  S S S
|-------------------------------------------------------------|
|-------------------------------------------------------------|
|-10b12==(10)r---10b12==(10)-(10)r-10-8----10p8-10-8h9--------|
|---------------------------------------10--------------------|
|------------------------------------------------------10-----|
|-----------------------------------------------------------8-|


    ~~~~~~~~~~~~~~~~~~~~~~~~~~~~~~
    S  E    S  +S   S  E  E  E  S S  S S
|-----------------------------------------|
|-/13-13---13-(13)-13-13-13-13-13-8-11p8--|
|-----------------------------------------|
|-----------------------------------------|
|-----------------------------------------|
|-----------------------------------------|
|
|   E    E      Q         E  E  Q
|-----------------------------------------|
|-----------------------------------------|
|---9---------------------9--9--9---------|
|---8---------------------8--8--8---------|
|-----------------------------------------|
|---8---------------------8--8--8---------|

w/Rhy Fig 1 last 8 bars only
                         ~~~~~~~~~~~~~~~~~~
   E        +Q        S  S  +H
|-----------------------------------------|
|-13b16====(13)r-----11-13-(13)-----------|
|-----------------------------------------|
|-----------------------------------------|
|-----------------------------------------|
|-----------------------------------------|


 ~~~~~~
                                           |-3--|
   +Q         S  S  S  a  S  +S   S T T  S S  S S  S S
|------------------------------------------------------|
|-(13)-------11h13-11-11h13-(13)-11-8------8-----------|
|-------------------------------------8-10---10p8-10p8-|
|------------------------------------------------------|
|------------------------------------------------------|
|------------------------------------------------------|


  H                  E    S S  S S  S S   Q.             E   H
|---------------------------------------|----------------------------------|
|---------------------------------------|----------------------------------|
|-8tr9----------------------------------|-8tr9-----------------------------|
|---------------------------8-10-8-10-8-|----------------------------------|
|------------------------10-------------|----------------------------------|
|---------------------------------------|----------------------------------|


                           |---3---|
   S      +E       S  S S  S S     S  a      +S   +S  E   Q
|-------------------------------------------------------------|
|-------------------------------------------------------------|
|-10b12==(10)r----10--8-8-10p8-------10b12==(10)r(10)p8-------|
|---------------------------------10--------------------------|
|-------------------------------------------------------------|
|-------------------------------------------------------------|


             ~~~~~~~~~~~~~~~~~~~~
   E   S  a  S  +S   E    S  +Q         a      +S   +S  S  S
|-------------------------------------------------------------|
|------8-12s13-(13)-13---13-(13)------------------------------|
|-10-----------------------------------10b12==(10)r(10)p8-----|
|---------------------------------------------------------10--|
|-------------------------------------------------------------|
|-------------------------------------------------------------|


   S S  E   Q       Q        a  S  S  S S
|-----------------------------------------|
|-----------------------------------------|
|-----------------------------------------|
|-10p8----------------------------10-10-8-|
|------10-------------------10h12---------|
|-----------------------------------------|


  Q           E   S  S H
|------------------------------------||
|------------------------------------||
|-8tr9-------------------------------||
|------------10---8------------------||
|-------------------10---------------||
|------------------------------------||

w/Rhy Fig 1
  a  E   E   Q       a  E   E   Q
|-8h10p==8----------------------------|
|--------------------8h10p==8---------|
|-------------------------------------|
|-------------------------------------|
|-------------------------------------|
|-------------------------------------|


  a E    e    a  E    e    S  S  S S  S  S  S S
|------------------------------------------------|
|------------------------------------------------|
|-8h9--------------------------------------------|
|-------10---10h12---10---------10---------10----|
|-------------------------10h12------10h12-------|
|------------------------------------------------|


                      ~~
  Q       S  S  S  S  Q        e  a      +E
|-----------------------------------------------|
|-----------11-13-13-13-------11----------------|
|--------------------------------10b12==(10)r---|
|-----------------------------------------------|
|-----------------------------------------------|
|-----------------------------------------------|


   a      +S   +S  E   Q       H
|--------------------------------------------|
|--------------------------------------------|
|-10b12==(10)r(10)p8-------------------------|
|--------------------------------------------|
|--------------------------------------------|
|--------------------------------------------|


  a  E   E   Q     a  E   E   Q
|-8h10p==8------------------------|
|------------------8h10p==8-------|
|---------------------------------|
|---------------------------------|
|---------------------------------|
|---------------------------------|


  a E    e    a  E  e    S  S  S S  S  S  S S
|---------------------------------------------|
|---------------------------------------------|
|-8h9-----------------------------------------|
|-------10---10h12-10---------10---------10---|
|-----------------------10h12------10h12------|
|---------------------------------------------|


                 ~~~~~~~
  Q       E   S  S  +Q        S  S S  S   S      S S S Q       H
|---------------------------------------|----------------------------------|
|---------------------------------------|----------------------------------|
|----------------------------------8----|-8b8.5----------------------------|
|-------------8s10-(10)-------8------10-|-------10p8-----------------------|
|-------------------------------10------|----------------------------------|
|---------------------------------------|----------------------------------|


  a  E     E     Q      a  E   E   Q
|-8h10p====8---------------------------|
|-----------------------8h10p==8-------|
|--------------------------------------|
|--------------------------------------|
|--------------------------------------|
|--------------------------------------|


  a E    e    a  E  e    S  S  S S  S  S  S S
|---------------------------------------------|
|---------------------------------------------|
|-8h9-----------------------------------------|
|-------10---10h12-10---------10---------10---|
|-----------------------10h12------10h12------|
|---------------------------------------------|


               ~~~~~~~~~
  Q       E    E    +Q         S E    a      +S
|-------------------------------------------------|
|-------------13---(13)-------11p8----------------|
|------------------------------------10b12==(10)r-|
|-------------------------------------------------|
|-------------------------------------------------|
|-------------------------------------------------|


   |--3---|                       |---3---|
   S S    S E    E   E    E   E   E  E    E
|----------------------------------------13---||
|-----------------------------------13--------||
|-10p8----------------------------------------||
|--------10-----10---8---10---8---------------||
|---------------------------------------------||
|---------------------------------------------||

w/Rhy Fig 1 1st 9 bars only
   a      E   E   Q       H
|-13b15==13r----------------------------|
|---------------------------------------|
|---------------------------------------|
|---------------------------------------|
|---------------------------------------|
|---------------------------------------|


  Q        S      +E.       a      +Q          a      +E   +S   S
|---------13b15==(13)r-----13b15==(13)r-------13b15==(13)r(13)-----|
|--------------------------13b15==(13)r-------13b15==(13)r(13)-11--|
|------------------------------------------------------------------|
|------------------------------------------------------------------|
|------------------------------------------------------------------|
|------------------------------------------------------------------|


      ~~~~~~~~~~
   S  E.      Q       H
|-13--------------------------------|
|-13-13------13---------------------|
|-----------------------------------|
|-----------------------------------|
|-----------------------------------|
|-----------------------------------|


  H               E    a      +E     +S    S  E
|---------------------13b15==(13)---(13)r-13-13---|
|-------------------------------------------------|
|-------------------------------------------------|
|-------------------------------------------------|
|-------------------------------------------------|
|-------------------------------------------------|


                       ~~~~~~~~~~
   E        +E      S  E.      Q        S S E
|-13b15====(13)r---13-------------------------|
|---------------------13------13-------11s8---|
|---------------------------------------------|
|---------------------------------------------|
|---------------------------------------------|
|---------------------------------------------|


                   |--3--|  |--3---|       |-3--|
  E   a  S S S  S  S S   S  S S    S S  S  S S  S  E
|----------8-8----11p8-----10p8------8---------------|
|-----8h10-----10--------8--------10---11----8-------|
|-----------------------------------------10------10-|
|----------------------------------------------10----|
|----------------------------------------------------|
|----------------------------------------------------|


  S  S E   E   a  E   a  S S S  S  E E
|----------------------------------------|
|----------------------------------------|
|-8--------------------------------------|
|---10---------8h10---8h10p8-------------|
|----------------------------8-------8---|
|------------------------------11-11-----|


                          ~~~~~~~~~
   a      +Q.             E    +Q         E E
|------------------------------------------------|
|------------------------------------------------|
|------------------------------------------------|
|------------------------10---(10)---------------|
|----------------------------------------10------|
|-11b12==(11)r-----------------------------------|


                          ~~~
                                       |--3---|
   a      +S   +S   S  S  E.    S S S  S S    S  E E
|----------------------------------------------------|
|----------------------------------------------------|
|-10b12==(10)r(10)p=8----10----10---8-10p8h==10-10---|
|----------------------------------------------------|
|----------------------------------------------------|
|----------------------------------------------------|


                                                               5/4
                                                 |---3---|
   a      +S   +S  S  S S S E   S S E    a      +S   +S  S  E    E E Q  Q  H
|-------------------------------------------------------------|----------||
|-------------------------------------------------------------|-----------||
|-10b12==(10)r(10)-8-10-----8-------8---10b12==(10)r(10)-8----|-----------||
|----------------------------------------------------------10-|-10--------||
|-------------------------------------------------------------|-----------||
|-------------------------8-------8---------------------------|--------||
|
|          S    S  S  S E   S S S S S S          E          E    E E Q  Q  H
|-------------------------------------------------------------|-----------||
|-------------------------------------------------------------|-----------||
|----------8----8--8--8-8-------------------------------------|--9--------||
|----------7----7--7--7-7-------x-x-5-6----------7------------|--8--------||
|---------------------------7-8-------------------------------|-----------||
|-------------------------------------------------------------|--8--------||


 Free Time
 4/4
                   ~
  H    E  S      S E  S S
|----------------8-8------:
|--------10b10.5-----11-8-:
|-------------------------:
|-------------------------:
|-------------------------:
|-------------------------:


   E  S S  E E  S S  S S  S  S  a      +S    a      +S
|--------------------------------------------------------:
|--------------------------------------------------------:
|-11-10-8----8-10p8----8-10----10b12==(10)r-10b12==(10)r-:
|---------10--------10------10---------------------------:
|--------------------------------------------------------:
|--------------------------------------------------------:
|
|  TP
|  W
|--3-----------------------------------------------------:
|--3-----------------------------------------------------:
|--3-----------------------------------------------------:
|--2-----------------------------------------------------:
|--3-----------------------------------------------------:
|--------------------------------------------------------:


   |-3--|        |-3--|
   S S  S E a  E S  S S  E E  E E
|---------------------------------:
|---------------------------------:
|-10p8----------------------------:
|------10---8h10-8----------------:
|------------------10p8----8----8-:
|-----------------------11---11---:
|
|  TP
|  W
|--3------------------------------:
|--3------------------------------:
|--3------------------------------:
|--2------------------------------:
|--3------------------------------:
|---------------------------------:


                     ~~~~~~~~~~~~
   E E  E      +E    H       +W            E E Q  H
|-------------------------:-------------:--------------*|
|-------------------------:-------------:--x-----------*|
|-------------------------:-------------:--x-----------*|
|-------------------10----:-(10)--------:--x-----------*|
|-------------------------:-------------:-10-----------*|
|-11-8-11b12==(11)r-------:-------------:--x-----------*|
|
|  TP                         TP
|  W                          W            E E Q  H
|--3----------------------:---3---------:--3-----------*|
|--3----------------------:---3---------:--3-----------*|
|--3----------------------:---3---------:--3-----------*|
|--2----------------------:---2---------:--2-----------*|
|--3----------------------:---3---------:--3-----------*|
|-------------------------:-------------:--------------*|

Paul Personne - Démo Boogie


J.B. Hutto ~ '' Angel Face '' ( Chicago Electric Blues , 1982 )


J B Hutto - Lone Wolf

Albert Collins style blues lick guitar lesson

Albert Collins Style Blues Lead Guitar Lesson

ALBERT COLLINS WHEN THE WELFARE TURNS IT'S BACK ON YOU.wmv

Messages les plus consultés