The Pretty Things - L.S.D. (Live @ Roadburn, April 19th, 2013)

Cranberries - " Zombie " tab

Album: No Need To Argue (1994)


This song consist of 4 chords: Em, C, G, D/F#
▼= move down with the plectrum
▲= move up with the plectrum
h= hammer on
p= pull of
s= slide

Intro:
    Em               C                G                D/F#
     ▼▼▼ ▼▲▲▼ ▼▲▼     ▼▼▼ ▼▲▲▼ ▼▲▼     ▼▼▼ ▼▲▲▼ ▼▲▼     ▼▼▼ ▼▲▲▼ ▼▲▼
E |----------------|----------------|----------------|----------------|
B |--000-0000-000--|--111-1111-111--|--000-0000-000--|--333-3333-333--|
G |--000-0000-000--|--000-0000-000--|--000-0000-000--|--222-2222-222--|
D |--222-2222-222--|--222-2222-222--|--000-0000-000--|--000-0000-000--|
A |--222-2222-222--|--333-3333-333--|--222-2222-222--|--000-0000-000--|
E |----------------|----------------|----------------|----------------|

Guitar 1:
    Em           C            G            D/F#
E |------------|------------|------------|------------|
B |------------|------------|------------|------------|
G |--00000000--|--00000000--|--00000000--|--22222222--|   play this 2x
D |--22222222--|--22222222--|--00000000--|--00000000--| ends 2nd time after 
A |--22222222--|--33333333--|--22222222--|--00000000--| D/F#, with Em.
E |--00000000--|--00000000--|--33333333--|--22222222--|

Guitar 2:
(only 2nd time)
    Em                C                 G                 G
E |----------0------|----------0------|----------0------|--0-------0--|
B |--0-0---0---0----|--1-1---1---1----|--0-0---0---0----|----3---3----|
G |------0-------0--|------0-------0--|------0-------0--|------0------| 
D |-----------------|-----------------|-----------------|-------------| 
A |-----------------|-----------------|-----------------|-------------|
E |-----------------|-----------------|-----------------|-------------|


Bridge:

E |--7h8-5h7-3h5---2h3p2--------|
B |--------------5-------3-3----|
G |--------------------------4--|  guitar 1 plays chords Em, C, G, D/F#
D |-----------------------------|
A |-----------------------------|
E |-----------------------------|


Verse 1 and 2:
    Em    C     G     G
E |--0--|--0--|--3--|--0--------|
B |--0--|--1--|--3--|----3---3--|
G |--0--|--0--|--0--|------0----|  play this 4x
D |--2--|--2--|--0--|-----------|
A |-----|-----|-----|-----------|
E |-----|-----|-----|-----------|


Chorus:
    Em           C            G            D/F#
E |------------|------------|------------|------------| This is what Noel
B |------------|------------|------------|------------| Hogan plays, but
G |--00000000--|--00000000--|--00000000--|--22222222--| you can also play
D |--22222222--|--22222222--|--00000000--|--00000000--| full chords, if you
A |--22222222--|--33333333--|--22222222--|--00000000--| want, with your
E |--00000000--|--00000000--|--33333333--|--22222222--| own rhythm.


Solo:

E |--7h8-5h7-7-7-7---7h8-5h7-7-7-7---7h8-5h7-7-7-7--|
B |-------------------------------------------------|
G |-------------------------------------------------|
D |-------------------------------------------------|
A |-------------------------------------------------|
E |-------------------------------------------------|

E |--7h8-5h7-2222--2-3-5-2222--2-3-5-2222--2-3-5-2222-0-2s5-5-7-7-5555--|
B |----------0000--0-0-0-0000--0-0-0-0000--0-0-0-0000-0-0---0-0-0-0000--|
G |---------------------------------------------------------------------|
D |---------------------------------------------------------------------|
A |---------------------------------------------------------------------|
E |---------------------------------------------------------------------|

E |--5-7-7-5555--5s2-2-2-0-0-22--2-3-5-2222--2-3-5-2222--2-3-5-2--2-0-0--|
B |--0-0-0-0000--0---0-0-0-0-00--0-0-0-0000--0-0-0-0000--0-0-0-0--0-0-0--|
G |----------------------------------------------------------------------|
D |----------------------------------------------------------------------|
A |----------------------------------------------------------------------|
E |----------------------------------------------------------------------|


Song structure:
Intro
Bridge
Verse 1
Chorus 4x (ends with Em)
Bridge
Verse 2
Chorus 4x
Solo

Zombie Tab by Cranberries

Intro:
------

Guitar I (Clean):

Em Cmaj7
e -0---0---0---0-0---0-0-----0-0---|-0---0---0---0-0---0-0---0-0-0---|
B -0---0---0---0-0---0-0-----0-0---|-0---0---0---0-0---0-0---0-0-0-0-|
G -0---0---0---0-0---0-0-----0-0-0-|-0---0---0---0-0---0-0---0-0-0-0-|
D -2---2---2---2-2---2-2-----2-2-0-|-2---2---2---2-2---2-2---2-2-2-0-|
A -2-------2---2-------2-----2-2-0-|-3-------3-----------3-----------|
E -0-------0---0-------0-----0-0---|---------------------------------|

G6 D6sus
e -0---0---0---0-0---0-0-----0-0---|-0---0---0---0-0---0-0---0-0-0-0-|
B -0---0---0---0-0---0-0-----0-0---|-0---0---0---0-0---0-0---0-0-0-0-|
G -0---0---0---0-0---0-0-----0-0-0-|-0---0---0---0-0---0-0---0-0-0-0-|
D -0---0---0---0-0---0-0-----0-0-0-|-0---0---0---0-0---0-0---0-0-0-0-|
A -2-------2-----------2-------2-0-|-0-------0-----------0---0-0-0-0-|
E -3-------3-----------3-------3---|-2-------2-----------2---2-2-2-2-|

Guitar II (Dist.):

Em Cmaj7
e ---------------------------------|---------------------------------|
B ---------------------------------|---------------------------------|
G -9---9---9---9---9---9---9---9---|-5---5---5---5---5---5---5---5---|
D -9---9---9---9---9---9---9---9---|-5---5---5---5---5---5---5---5---|
A -7---7---7---7---7---7---7---7---|-3---3---3---3---3---3---3---3---|
E -0---0---0---0---0---0---0---0---|---------------------------------|

G6 D6sus
e ---------------------------------|---------------------------------|
B ---------------------------------|---------------------------------|
G -0---0---0---0---0---0---0---0---|-0---0---0---0---0---0---0---0---|
D -0---0---0---0---0---0---0---0---|-0---0---0---0---0---0---0---0---|
A -2---2---2---2---2---2---2---2---|-0---0---0---0---0---0---0---0---|
E -3---3---3---3---3---3---3---3---|-2---2---2---2---2---2---2---2---|

Repeat above Guitar II part with the following Guitar I part:

Em C
e ---------------------------------|---------------------------------|
B -----0-------0-------0-----------|---------------------------------|
G ---------0---------------0-------|---------0---------------0-------|
D -2---------------2---------------|-----5-------5-------5-----------|
A ---------------------------------|-3---------------3---------------|
E ---------------------------------|---------------------------------|

G Dsus
e ---------------------------------|-0---------------------------0-0-|
B ---------------------------------|-----3-----------------------0-0-|
G ---------------------------------|---------0-------------------0-0-|
D ---------0---------------0-------|-------------0---------------0-0-|
A -----2-------2-------2-------2---|-----------------0-------0-------|
E -3---------------3---------------|---------------------2-----------|

Continue, Guitar I (top) and Guitar II (bottom):
----------------------------------------------------
Em C
e -0-----------------------0-------|-------------------------0-------|
B -0-----------------------0-------|-------------------------0-------|
G -0-----------------------0-------|-------------------------0-------|
D -2-------------------------------|-2---2---2---2---2---2-----------|
A -2---2---2---2---2---2-----------|-3---3---3---3---3---3-----------|
E -0---0---0---0---0---0-----------|---------------------------------|

Em
e ---------------------------------|---------------------------------|
B ---------------------------------|---------------------------------|
G -9-------------------------------|---------------------------------|
D -9-------------------------------|---------------------------------|
A -7-------------------------------|---------------------------------|
E -0-------------------------------|---------------------------------|

Instrumental Solo - Guitar I (top) and Guitar II (bottom):
----------------------------------------------------------

G Dsus
e ---------------------------------|-0---------------------------0-0-|
B ---------------------------------|-----3-----------------------0-0-|
G ---------------------------------|---------0-------------------0-0-|
D ---------0---------------0-------|-------------0---------------0-0-|
A -----2-------2-------2-------2---|-----------------0-------0-------|
E -3---------------3---------------|---------------------2-----------|

e -7--h8--p7---5--h7-------3--h5---|p3---2--h3--p2-------------------|---|
B ---------------------------------|-----------------3-------3-------|-0-|
G ---------------------------------|---------------------------------|---|
D ---------------------------------|---------------------------------|---|
A ---------------------------------|---------------------------------|---|
E ---------------------------------|---------------------------------|---|


At the Verses, repeat the chords: Em, C, G, & Dsus until the "In your head..." part,
then play E5, C5, G Dsus chords and repeat as needed.

Guitar Solo:
------------

e -7/8----5/7--------------|-7/8----5/7---7---7---7--|-7/8-----5/7---7---7---7--|
B -------------------------|-------------------------|--------------------------|
G -------------------------|-------------------------|--------------------------|
D -------------------------|-------------------------|--------------------------|
A -------------------------|-------------------------|--------------------------|
E -------------------------|-------------------------|--------------------------|


e -7/8-----5/7--7-7-7-7-7-7|-7/8-----5/7--7---7---7-7|-7/8-----5/7--7---7---7-7|
B --------------7-7-7-7-7-7|-7/8-----5/7--7---7---7-7|-7/8-----5/7--7---7---7-7|
G -------------------------|-------------------------|-------------------------|
D -------------------------|-------------------------|-------------------------|
A -------------------------|-------------------------|-------------------------|
E -------------------------|-------------------------|-------------------------|


e -7/8-----5/7-------------|-7\5-----5------7-----10-|-10/12--12\10-10---10--10|
B -7/8-----5/7-------------|-7\5-----5------7-----10-|-10/12--12\10-10---10--10|
G -------------------------|-------------------------|-------------------------|
D -------------------------|-------------------------|-------------------------|
A -------------------------|-------------------------|-------------------------|
E -------------------------|-------------------------|-------------------------|


e -10/12--12\10--10---10-10|-10\7----7---------------|-7\5----5/7----7------7-7|
B -10/12--12\10--10---10-10|-10\7----7---------------|-7\5----5/7----7------7-7|
G -------------------------|-------------------------|-------------------------|
D -------------------------|-------------------------|-------------------------|
A -------------------------|-------------------------|-------------------------|
E -------------------------|-------------------------|-------------------------|


e -7/8-----5/7----7-----7-7|-7/8-----5/7----7-----7-7|-7/8----5/7--------------|
B -7/8-----5/7----7-----7-7|-7/8-----5/7----7-----7-7|-7/8----5/7--------------|
G -------------------------|-------------------------|-------------------------|
D -------------------------|-------------------------|-------------------------|
A -------------------------|-------------------------|-------------------------|
E -------------------------|-------------------------|-------------------------|


e -7\5------5------------5-|-7-----------------------|
B -7\5------5------------5-|-7-----------------------|
G -------------------------|-9-----------------------|
D -------------------------|-9-----------------------|
A -------------------------|-7-----------------------|
E -------------------------|-0-----------------------|

I Love Rock N Roll Tabs by Joan Jett



Guitar 1 - E A D G B E
Guitar 2 - E A D G B E
Bass     - E A D G

B= bend
~= vibrato
H= Hammer on 
/= slide to
X = muted tone
~T  = Tremlo vibrato

Guitar 1+2
    E E     E E           A A     B B 
e|-------------------------------------------------|e
B|-------------------------------------------------|B
G|------------------------2-2-----4-4--------------|G
D|--2-2-----2-2-----------2-2-----4-4--------------|D
A|--2-2-----2-2-----------0-0-----2-2--------------|A
E|--0-0-----0-0-0H3B~-------------------0H3B~------|E


    E E     E E           A A     B A 
e|-------------------------------------------------|e
B|-------------------------------------------------|B
G|------------------------2-2-----4-2--------------|G
D|--2-2-----2-2-----------2-2-----4-2-2---------2--|D
A|--2-2-----2-2-----------0-0-----2-0-2---------2--|A
E|--0-0-----0-0-0H3B~-----------------0---------0--|E

Guitar 1 Riff
e|--------------------------------|e
B|---15B--12~---------------------|B
G|------------14--12~-------------|G
D|--------------------------------|D
A|--------------------------------|A
E|--------------------------------|E

Guitar 2 Riff Played same time as guitar 1

e|--------------------------------|e
B|--3P0---------------------------|B
G|-------2P0----------------------|G
D|-----------2~-------------------|D
A|--------------------------------|A
E|--------------------------------|E


Guitar 1+2
    E E             E E
e|-------------------------------------------------|e
B|-------------------------------------------------|B
G|-------------------------------------------------|G
D|--2-2-------------2-2----------------------------|D
A|--2-2-------------2-2----------------------------|A
E|--0-0-------------0-0----------------------------|E

Guitar 1 Riff Played same time as guitar 1
e|--------------------------------|e
B|---15B--12~---------------------|B
G|------------14--12~-------------|G
D|--------------------------------|D
A|--------------------------------|A
E|--------------------------------|E

Guitar 2 Riff

e|--------------------------------|e
B|--3P0---------------------------|B
G|-------2P0----------------------|G
D|-----------2~-------------------|D
A|--------------------------------|A
E|--------------------------------|E




Guitar 1+2
   E E              B B
e|-------------------------------------------------|e
B|-------------------------------------------------|B
G|------------------4--4---------------------------|G
D|--2-2-------------4--4---------------------------|D
A|--2-2-------------2--2---------------------------|A
E|--0-0--------------------------------------------|E



Guitar 1 Riff Played same time as guitar 1
e|--------------------------------|e
B|---15B--12~---------------------|B
G|------------14--12~-------------|G
D|--------------------------------|D
A|--------------------------------|A
E|--------------------------------|E

Guitar 2 Riff, same time as riff 1

e|--------------------------------|e
B|--3P0---------------------------|B
G|-------2P0----------------------|G
D|-----------2~-------------------|D
A|--------------------------------|A
E|--------------------------------|E



Guitar 1+2
    E E             E E
e|----------------------------------------|e
B|----------------------------------------|B
G|--2-2----4-4-----------------2~~~-------|G
D|--2-2----4-4---------2-2-----2~~~-------|D
A|--0-0----2-2---------2-2-----0~~~-------|A
E|---------------------0-0----------------|E


Drums + vocal....



guitar 1  + 2 

e|--------------------------------|e
B|--------------------------------|B
G|---4-4-4-4-4-4-4----------------|G
D|---4-4-4-4-4-4-4----------------|D
A|---2-2-2-2-2-2-2----------------|A
E|--------------------------------|E




All over again:
Guitar 1+2
    E E     E E           A A     B B 
e|-------------------------------------------------|e
B|-------------------------------------------------|B
G|------------------------2-2-----4-4--------------|G
D|--2-2-----2-2-----------2-2-----4-4--------------|D
A|--2-2-----2-2-----------0-0-----2-2--------------|A
E|--0-0-----0-0-0H3B~-------------------0H3B~------|E


    E E     E E           A A     B A 
e|-------------------------------------------------|e
B|-------------------------------------------------|B
G|------------------------2-2-----4-2--------------|G
D|--2-2-----2-2-----------2-2-----4-2-2---------2--|D
A|--2-2-----2-2-----------0-0-----2-0-2---------2--|A
E|--0-0-----0-0-0H3B~-----------------0---------0--|E

Guitar 1 Riff
e|--------------------------------|e
B|---15B--12~---------------------|B
G|------------14--12~-------------|G
D|--------------------------------|D
A|--------------------------------|A
E|--------------------------------|E

Guitar 2 Riff Played same time as guitar 1

e|--------------------------------|e
B|--3P0---------------------------|B
G|-------2P0----------------------|G
D|-----------2~-------------------|D
A|--------------------------------|A
E|--------------------------------|E


Guitar 1+2
    E E             E E
e|-------------------------------------------------|e
B|-------------------------------------------------|B
G|-------------------------------------------------|G
D|--2-2-------------2-2----------------------------|D
A|--2-2-------------2-2----------------------------|A
E|--0-0-------------0-0----------------------------|E

Guitar 1 Riff Played same time as guitar 1
e|--------------------------------|e
B|---15B--12~---------------------|B
G|------------14--12~-------------|G
D|--------------------------------|D
A|--------------------------------|A
E|--------------------------------|E

Guitar 2 Riff

e|--------------------------------|e
B|--3P0---------------------------|B
G|-------2P0----------------------|G
D|-----------2~-------------------|D
A|--------------------------------|A
E|--------------------------------|E




Guitar 1+2
   E E              B B
e|-------------------------------------------------|e
B|-------------------------------------------------|B
G|------------------4--4---------------------------|G
D|--2-2-------------4--4---------------------------|D
A|--2-2-------------2--2---------------------------|A
E|--0-0--------------------------------------------|E



Guitar 1 Riff Played same time as guitar 1
e|--------------------------------|e
B|---15B--12~---------------------|B
G|------------14--12~-------------|G
D|--------------------------------|D
A|--------------------------------|A
E|--------------------------------|E

Guitar 2 Riff, same time as riff 1

e|--------------------------------|e
B|--3P0---------------------------|B
G|-------2P0----------------------|G
D|-----------2~-------------------|D
A|--------------------------------|A
E|--------------------------------|E



Guitar 1+2
    E E             E E
e|----------------------------------------|e
B|----------------------------------------|B
G|--2-2----4-4-----------------2~~~-------|G
D|--2-2----4-4---------2-2-----2~~~-------|D
A|--0-0----2-2---------2-2-----0~~~-------|A
E|---------------------0-0----------------|E


Drums + vocal....



guitar 1  + 2 

e|--------------------------------|e
B|--------------------------------|B
G|---4-4-4-4-4-4-4----------------|G
D|---4-4-4-4-4-4-4----------------|D
A|---2-2-2-2-2-2-2----------------|A
E|--------------------------------|E



SOLO DURING CHORDS
GUITAR 2


e|-------------------------------------------------------------|e
B|-------------------------------------------------------------|B
G|--------------------4-----4-----4------2-2--4-4---------2~~~-|G
D|--2-----2-----2-----4-----4-----4------2-2--4-4--2-2----2~~~-|D
A|--2-----2-----2-----2-----2-----2------0-0--2-2--2-2----0~~~-|A
E|--0-----0-----0----------------------------------0-0---------|E



Solo
GUITAR 1
                      Tremlo down
e|-----------------------------|e
B|-----------------------------|B
G|----------------------7~~~---|G
D|--2-2-----------------6~~~---|D
A|--2-2-----------------7~~~---|A
E|--0-0--2B----2B--0-----------|E

e|------------------------12-----------------------|e
B|---------------------------------12-----12-------|B
G|---------9--11-----11B------11B---------11B------|G
D|----9/11-----------------------------------------|D
A|-------------------------------------------------|A
E|-------------------------------------------------|E


e|-----------------------------------|e
B|--------------------------12-------|B
G|---9----9H11------------9----------|G
D|-----11--------XX--9H11------------|D
A|-----------------------------------|A
E|-----------------------------------|E

e|----------------------------------------------------|e
B|----------------------------------------------------|B
G|--9-X-9/8---8-X-8/6---6-X-6/4---4-X-4/2----2-X-2/1--|G
D|----------------------------------------------------|D
A|----------------------------------------------------|A
E|----------------------------------------------------|E


e|--------------------|e
B|--------------------|B
G|--1-1-1-------------|G
D|--------4-2---2~----|D
A|------------4-------|A
E|--------------------|E


END OF SOLO


CONTINEU PLAYING THIS TILL END OF SONG:

GUITAR 1 + 2

Riff stops here.

    E E     E E           A A     B B 
e|-------------------------------------------------|e
B|-------------------------------------------------|B
G|------------------------2-2-----4-4--------------|G
D|--2-2-----2-2-----------2-2-----4-4--------------|D
A|--2-2-----2-2-----------0-0-----2-2--------------|A
E|--0-0-----0-0-0H3B~-------------------0H3B~------|E

I Love Rock N Roll Tab by Joan Jett

Joan Jett-"I Love Rock and Roll"



1|-------------------------------------------------------|
2|-------------------------------------------------------|
3|------------------------------2--2-----4--4------------|
4|---2--2---%---2--2------------2--2--%--4--4------------|
5|---2--2-------2--2------------0--0-----2--2------------|
6|---0--0-------0--0---3b(1/4)------------------3b(1/4)--|

1|----------------------------------------------------|
2|----------------------------------------------------|
3|------------------------------2--2-----4--2---------|
4|---2--2---%---2--2------------2--2--%--4--2--2--2---|
5|---2--2-------2--2------------0--0-----2--0--2--2---|
6|---0--0-------0--0---3b(1/4)-----------------0--0---|

           rake
1|----------___----------------------------------------------|
2|---------|--x|--15b--r15--12-------------------------------|
3|----------x------------------14-12~~/----------------------|
4|--9--9~---------2---0--------------------------------------|
5|--7--7~-------------------2--0-----------------------------|
6|--0--0~-------------------------0--------------------------|
     I saw him.....
        rake 
1|----------------------------------guitar-1----------------|
2|-------------------------------x--15b--r15--12------------|
3|-----------------------------x------------------14--12~~/-|
4|--2--2---------------9--9----------2----0-----------------|
5|--2--2---------------7--7-------guitar-2-----2---0--------|
6|--0--0---------------0--0----------------------------0----|
        dancing....              

        rake 
1|----------------------------------guitar-1----------------|
2|-------------------------------x--15b--r15--12------------|
3|-----------------------------x------------------14--12~~/-|
4|--2--2---------------9--9----------2----0-----------------|
5|--2--2---------------7--7-------guitar-2-----2---0--------|
6|--0--0---------------0--0----------------------------0----|        

1|---------------------|
2|---------------------|
3|--4--4---2--2--------|
4|--4--4---2--2--2-----|
5|--2--2---0--0--2-----|
6|---------------0-----|
                ^ ring for 8 beats
Chorus :
1|-------------------------------------------------------|
2|-------------------------------------------------------|
3|------------------------------2--2-----4--4------------|
4|---2--2---%---2--2------------2--2--%--4--4------------|
5|---2--2-------2--2------------0--0-----2--2------------|
6|---0--0-------0--0---3b(1/4)------------------3b(1/4)--|
 I love rock and roll.        So put another...

1|----------------------------------------------------|
2|----------------------------------------------------|
3|------------------------------2--2-----4--2---------|
4|---2--2---%---2--2------------2--2--%--4--2-%%-2--2-|
5|---2--2-------2--2------------0--0-----2--0----2--2-|
6|---0--0-------0--0---3b(1/4)-------------------0--0-|
             Ow! 
  rake       
1|---------------------------------|      
2|----x--15b--r15--12--------------|     
3|--x------------------14--12~~/---|    
4|---------------------------------|  
5|---------------------------------|  
6|---------------------------------|
       
Solo :                             
1|---------------------------------/----------------------\-|
2|----------------------------------------------------------|
3|---------------------------------7~~~~~~~~~~~~~~~~~~~~~~--|
4|---------------------------------6~~~~~~~~~~~~~~~~~~~~~~--|
5|----------------------------------------------------------|
6|--0--x--x--2b(1/2)-r2--2b(1/2)----------------------------|

          full 
1|-------------------12------------------------------^------|
2|-----------------------------12------------12--12b^-------|
3|---------9--11b~~------11b~-------11-------9---9---h11----|
4|-/9--11-------------------------------9h11----------------|
5|----------------------------------------------------------|
6|----------------------------------------------------------|

1|----------------------------------------------------------|
2|----------------------------------------------------------|
3|-------9---9-9-9-9/-8-8-8-8/-6-6-6-6/-4-4-4-4/-2-2-2-2/---|
4|--9h11----------------------------------------------------|
5|----------------------------------------------------------|
6|----------------------------------------------------------|

1|----------------------------------------------------------|
2|----------------------------------------------------------|
3|-1-1-1-1/-------------------------------------------------|
4|----------------------------------------------------------|
5|----------------------------------------------------------|
6|----------------------------------------------------------|

(2:35)
1|---------|----------|----------|----------|
2|---------|----------|----------|----------|
3|--9------|-----9----|------9---|----9.----|
4|---------|----------|----------|----------|
5|--7------|-----7----|------7---|----7.----|
6|---------|----------|----------|----------|

Tush Tab by Zz Top

TUSH (with solo)
by ZZ TOP

here is up to the second verse of "Tush" plus
this time I have included the first solo of the song.

---------------|------------|----------------|---------------| 
---------------|-----5------|----------------|---------------|
----5---5-3----|-5---5-3----|----5---5-3-----|-5---5-3-------|
----5---5-3----|-5---5-3----|----5---5-3-----|-5---5-3-------|
---------------|------------|----------------|---------------|
3-3---3------3-|---3------1/|3-3---3-----3-3-|---3-------3-1/|

        Ive been up Ive been down     take my word
---------------|-------------|----------------|--------------|
---------------|-----5-------|----------------|--------------|
----5---5-3----|-5---5-3-----|----5---5-3-----|---5---5-3----|
----5---5-3----|-5---5-3-----|----5---5-3-----|---5---5-3----|
---------------|-------------|----------------|--------------|
3-3---3------3-|---3-----3-1/|3-3---3-----3-1/|3-3--3-----3--|

 my way round     I aint askin for much
--------------|--------------|------------------------|-------------------|
---5----------|--------------|------------------------|-------------------|
---5---5-3----|---5---5-3----|------------------------|-------------------|
---5---5-3----|---5---5-3----|-------10----10---10----|-10----------------|
--------------|--------------|-10-10-12-12-13---12-12-|-10-10-------------|
-3---3------3-|-3---3------6-|-8--8-----------8-------|-8--8--0-0-1-1-2-2-|

     I said Lord take me downtown Im just lookin for some
----------------|---------------|-----------------|-----------------| tush.
----------------|---------------|-----------------|-----------------|
----5---5-3-----|-5---5-3---5---|-2-2-4-4-5-5-4---|-----------------|
----5---5-3-----|-5---5-3---5-0-|-0-0-0-0-0-0-0---|-5-5-7-7-5-5-7-0-|
----------------|---------------|-----------------|-3-3-3-3-3-3-3---|
3-3---3-----3-3-|---3-----------|-----------------|-----------------|

       Ive been bad...(into the second verse)
------------------|----------------|
------------------|----------------|
------------------|--------------0-|
------------------|---5-6-7------0-|
------7---8-8-7-7-|-5-3-4-5--------|
-/3-3---3-3-3-3-3-|-3--------------|


First solo:

----|------------------|-------------------|------------------------|
----|------------------|-------------------|-----------11/12--------|
----|-----12-12----12--|-12--12--12--12\10-|/12--12-----------------|
-12p|0/12--------------|-----12------------|--------12--------12----|
----|------------------|-------------------|---------------------12-|
----|------------------|-------------------|------------------------|

---------------------------|---------------3-|-----------------|
-11/12---------------------|----5\--/5---5---|-----------------|
----------12----------12\3-|-5------/5-------|-5---3---5--/3/3-|
-------12----12\10/12------|--X--------5-----|---5---5---5-----|
---------------------------|-----------------|-----------------|
---------------------------|-----------------|-----------------|

--------------------|---------------------|-------------------|
----/12-------------|---/12---------------|/7---6/7---------0-|
-0--/12------3P0--3P|0--/12---------------|/7\5-----7---7\5---|
----/12-------------|---/12---------12\7--|/7-------7---7\5---|
--------------------|---------------------|-------------------|
--------------------|---------------------|-------------------|

------------------|----------------------|------------------|
/5----------------|----------/11---------|------------------|
/5---3---5--/3-/3p|0--/12--------12\10---|/10---------------|
/5-5---0----------|--0----12----------12-|------------------|
-----------5------|----------------------|------------------|
------------------|----------------------|------------------|

--------------------------------|-------------------------------|
-------12----12----12----12-12\-|-------12-12-12\10-------12----|
--------------------------------|-------------------------------|
-10/12----12----12----12--------|-10/12-------------10/12----12-|
--------------------------------|-------------------------------|
--------------------------------|-------------------------------|

-------------------------------------|--------------------------|
-------12----12----12\10-------12----|-12\10---------10----12\--|
-------------------------------------|---------12-10-10-12-12\--|
-10/12----12----12-------10/12----12-|------10------------------|
-------------------------------------|--------------------------|
-------------------------------------|--------------------------|

--------------------|----------------|-------------------------------|
-/5---5----5----6---|----5--5--------|---------------/11-/11---------|
-/5---------------6\|5----------5\3--|-12-12-12\10----------12\10----|
--------------------|--5-------------|------------12--------12\10-12-|
--------------------|----------------|-------------------------------|
--------------------|----------------|-------------------------------|

---------------------------|----------------19-------------|
-------11-12------------20-|-20-20-20\18-------18\17-------|
-12-----------12--17/19----|-------------19----------17/19-|
----12--------12-----------|-------------19----------------|
---------------------------|-------------------------------|
---------------------------|-------------------------------|

-15-----------------------------|--------------------------|
---14\13-11/12-11/12---12\10----|-12-12-12\10--------------|
-----------------------12\10----|-12-12-12\10----12--12\10-|
-----------------------------12-|-------------12-----12\10-|
--------------------------------|--------------------------|
--------------------------------|--------------------------|

   Take me back...
------------------------|
------------------------|
---/12-----14------14/--|
-9----------------------|
------------------------|
------------------------|

Are You Gonna Go My Way Tab by Lenny Kravitz

Name: Carlos Espinoza

Tabs:  Lenny Kravitz:  Are You Gonna Go My Way?

     Riff 1: ---- 2x ----
        |-------------------------------------------3----|
        |-------------------------------------------3----|
  G 1   |-2-^4-^2-p0-------------2-^4-^2-p0--------------|
        |------------2---0-2----------------2---0-2------|
        |------------------------------------------------|
        |--------------0-------0--------------0----------|
  
     Riff 2: ---- 6x ----
        |-------------------------------------------3----|
        |-------------------------------------------3----|
  G 1   |-2-^4-^2-p0-------------2-^4-^2-p0--------------|
        |------------2---0-2----------------2---0-2------|
        |------------------------------------------------|
        |--------------0-------0--------------0----------|
        |                                                |
        |                                                |
        |------------------------------------------------|   
        |-10^12^10p8-------------10^12^10p8--------------|   
  G 2   |------------9---7-9----------------9---7-9------|   
        |------------------------------------------------|   
        |------------------------------------------------|   
        |------------------------------------------------|

|---------------------------------------------------------
|    Riff 3: ---- 4x ----
|       |------------------------------------------------|
|       |------------------------------------------------|
|  G 1  |-2-^4-^2-p0-------------2-^4-^2-p0--------------|
|       |------------2---0-2----------------2---0-2------|
|       |------------------------------------------------|
|       |--------------0-------0--------------0-------0--|
|
|       I was born long ago
|       I am the chosen I'm the one
|       I have come to save the day
|       And I won't leave until I'm done
|---------------------------------------------------------
|              -- 3x --         ||
|       |-----------------------||-------------------|
|       |-----------------------||-------------------|
|  G 1  |-5-^7-^5-p3------------||--5---4---3--2--4--|
|       |------------5-0-3-5--0-||-------------------|
|       |-----------------------||-------------------|
|       |-----------------------||-------------------|
|       |                                            |
|       |      -- 3x --         ||                   |
|       |-----------------------||-------------------|
|       |-13^15^13p11-----------||-------------------|
|  G 2  |------------12--10-12--||--12--10--9--10-12-|
|       |-----------------------||-------------------|
|       |-----------------------||-------------------|
|       |-----------------------||-------------------|
|
|        So that's why you've got to try
|        You've got to breathe and have some fun
|---------------------------------------------------------
|    Riff 3    2x
|
|        Though I'm not paid I play this game
|        And I won't stop until I'm done
|---------------------------------------------------------
    
|    Chorus:
|       |----0-------------------0--------------------|
|       |----0-------------------0--------------------|
|       |----7-------------------6--------------------|
|       |----9-------------------7--------------------|
|       |---------------------------------------------|
|       |---------------------------------------------|
|              But what I really want to know is

|       |------------------------------------------|
|       |-9-9-7-9---------------------9-9--12-9----|
|       |-9-9-7-9---------------------9-9--12-9----|
|       |-9-9-7-9---------------------9-9--12-9----|
|       |------------------------------------------|
|       |------------------------------------------|
|                 Are you gonna go my way

|       |----0---------------0------------------------|
|       |----0---------------0------------------------|
|       |----7---------------6------------------------|
|       |----9---------------7------------------------|
|       |---------------------------------------------|
|       |---------------------------------------------|
|            And I got to    got to know
|
|---------------------------------------------------------
       Riff 1    1x

       Riff 2    3x
|---------------------------------------------------------
       Riff 3    4x    
        I don't know why we always cry
        This we must leave and get undone
        We must engage and rearrange
        And turn this planet back to one
|---------------------------------------------------------
    
               -- 3x ---------  ||
        |-----------------------||-------------------|
        |-----------------------||-------------------|
        |-5-^7-^5-p3------------||--5---4---3--2--4--|
        |------------5-0-3-5--0-||-------------------|
        |-----------------------||-------------------|
        |-----------------------||-------------------|
        |                                            |
        |      -- 3x --------   ||                   |
        |-----------------------||-------------------|
        |-13^15^13p11-----------||--13--12--11-10-12-|
        |------------12--10-12--||-------------------|
        |-----------------------||-------------------|
        |-----------------------||-------------------|
        |-----------------------||-------------------|

        So tell me why we got to die                  
        And kill each other one by one
|---------------------------------------------------------
       Riff 3    2x    

        We've got to love and rub-a-dub
        We've got to dance and be in love
|---------------------------------------------------------

     Chorus
|---------------------------------------------------------

     Solo:
              12x in total --             -- ending with:
        |---------------------------------||-----------------|
        |-9-----7-------7-------5-5-7-5---||-----------------|
        |-9-----7-------7-------6-6-7-6---||-----------------|
        |-9-----7-------7-------7-7-7-7---||-----0-1---------|
        |---------------------------------||---4-------------|
        |---------------------------------||-----------------|
        (repeat 4x by itself, then 8x under solo

|---------------------------------------------------------
        
      Outro:

        Riff 2    4x


        |-0----------0-------0-------------0-------|
        |-0----------0-------0-------------0-------|
        |-7----------6-------7-------------6-------|
        |-9----------7-------9-------------7-------|
        |------------------------------------------|
        |------------------------------------------|

|---------------------------------------------------------

        |------------------------------------------|
        |-9-9-7-9---------------------9-9--7--9----|
        |-9-9-7-9---------------------9-9--7--9----|
        |-9-9-7-9---------------------9-9--7--9----|
        |------------------------------------------|
        |------------------------------------------|
                  Are you gonna go my way


        |-0---------------0------------------------|
        |-8---------------7------------------------|
        |-7---------------6------------------------|
        |-9---------------8------------------------|
        |------------------------------------------|
        |------------------------------------------|
            'cause Baby I got to know


        

       
--  Solo --


E-|--------------------------------------------------------------------|
B-|--------------------------------------------------------------------|
G-|----------12h14p12vvvbbb--------------------------------------------|
D-|-14vvvv------------------14p12-12--14-------------------------------|
A-|--------------------------------------12b14--12---------------------|
E-|------------------------------------------------15---12-10-12-12sss-|
                  
E-|-----------------------------------------------------------------------|
B-|------------------------------------------------------17----15s17vvvvv-|
G-|-----------------------9h11b13----9h11p9----9h11sss16----16------------|
D-|------9---11p9----9h11-------------------11----------------------------|
A-|--s11----------11------------------------------------------------------|
E-|-----------------------------------------------------------------------|
                                         
E-|-----------------------------15--17b19vvv--17b19vv-17b19vv-17b19vvv-|
B-|-17vvvvvvvvv19p17vvvv17vv17vvv--------------------------------------|
G-|--------------------------------------------------------------------|
D-|--------------------------------------------------------------------|
A-|--------------------------------------------------------------------|
E-|--------------------------------------------------------------------|
                                                                               
E-|-17b19rb17p15-----------------------------|
B-|--------------17vv-----17vv-----17b20vvv--|
G-|------------------------------------------|
D-|------------------------------------------|
A-|------------------------------------------|
E-|------------------------------------------|
                                                                               
E-|-----------------------------------------------------------------|
B-|--17b20v--17b20v--17b20v--17b20v--17b20v--17b20rb17p15----15--17-|
G-|-------------------------------------------------------16--------|
D-|-----------------------------------------------------------------|
A-|-----------------------------------------------------------------|
E-|-----------------------------------------------------------------|

E-|---------------------------------12----------12----------------|
B-|------------------------------------12-15b17----15p12----------|
G-|-16p14p12----12h14p12-----14b16-----------------------14p12----|
D-|----------14----------14------------------------------------14-|
A-|---------------------------------------------------------------|
E-|---------------------------------------------------------------|
                                                                               
E-|-12----------12--------------------------|
B-|----12-15b17----15p12--------------15p12-|
G-|----------------------14p12--14b16-------|
D-|-----------------------------------------|
A-|-----------------------------------------|
E-|-----------------------------------------|

E-|-------12-------12--------15p12----12------------------------------|
B-|-15b17----15b17----15b17--------15------15p12----15--12------------|
G-|----------------------------------------------14---------14p12--14-|
D-|-------------------------------------------------------------------|
A-|-------------------------------------------------------------------|
E-|-------------------------------------------------------------------|
                                                 
E-|-----------------------------|
B-|-----------------------------|
G-|-12b14rb12p9---12vvvvvvvvvv--|
D-|-----------------------------|
A-|-----------------------------|
E-|-----------------------------|

Good Mornig Little Schoolgirl Tab by Ten Years After

Intro and main riff:
|-----------------|------------------|
|-----------------|------------------|
|-----------------|------------------|
|-0-2-2-2-2-0-----|------------------|
|-------------2---|-2----------------|
|-----------------|-----0---3---0----|

|-----------------|-------------------|
|-----------------|-------------------|
|-----------------|-------------------|
|-0-2-2-2-2-0-----|-------------------|
|-------------2---|-2-----------------|
|-----------------|-----0---3---/12\--|play this 2 times

Verse 1:
|-----------------------|-----------------------|
|-----------------------|------------12b--------|
|-----------------------|------------12b--------|
|-12-14-14-14-14-12-----|------------------14---|
|-------------------14--|-14--------------------|
|-----------------------|------12---------------|
this is played 12 times total; 4 without singing
and then 8 times with singing

Chorus 1:
|-----------------|---7-------------|
|-----------------|---7-------------|
|-----------------|---8-------------|
|-----------------|---9-----9---7---|
|-9-9-9-9-9-9-9-9-|-9-9-9-9-9---7---|
|-7-7-7-7-7-7-7-7-|-7-7-7-7-7---5---|
  * * * * * * * *   *   * *
|------------------------------|-------------------|
|---------15-------------------|-------------------|
|-----14b-----14p12------14-12-|-------------------|
|-5------------------14--------|-14v---------/19\--|
|-5----------------------------|-------------------|
|-3----------------------------|-------------------|

verse 2:
|-----------------|------------------|
|-----------------|------------------|
|-----------------|------------------|
|-0-2-2-2-2-0-----|------------------|
|-------------2---|-2----------------|
|-----------------|-----0---3---0----|

|-----------------|-------------------|
|-----------------|-------------------|
|-----------------|-------------------|
|-0-2-2-2-2-0-----|-------------------|
|-------------2---|-2-----------------|
|-----------------|-----0---3---/12\--|
this is played 2 times just like the intro
and then 4 more times. The /12\ is kind of hard
to hear, I think he plays it sometimes and
sometimes he doesn't

Chorus 2:
|-----------------|---7-------------|
|-----------------|---7-------------|
|-----------------|---8-------------|
|-----------------|---9-----9---7---|
|-9-9-9-9-9-9-9-9-|-9-9-9-9-9---7---|
|-7-7-7-7-7-7-7-7-|-7-7-7-7-7---5---|
  * * * * * * * *   *   * *
|------------------------------|-------------------|
|-----15--15-------------------|-------------------|
|-----14b-----14p12------14-12-|-------------------|
|-5------------------14--------|-14v---------/19\--|
|-5----------------------------|-------------------|
|-3----------------------------|-------------------|

then:
|-----------------|------------------|
|-----------------|------------------|
|-----------------|------------------|
|-0-2-2-2-2-0-----|------------------|
|-------------2---|-2----------------|
|-----------------|-----0---3---0----|

|-----------------|-------------------|
|-----------------|-------------------|
|-----------------|-------------------|
|-0-2-2-2-2-0-----|-------------------|
|-------------2---|-2-----------------|
|-----------------|-----0---3---/12\--|
play this twice just like the intro then play
the part below 4 times.

|-----------------------|-----------------------|
|-----------------------|------------12b--------|
|-----------------------|------------12b--------|
|-12-14-14-14-14-12-----|-----------------------|
|-------------------14--|-14--------------------|
|-----------------------|------12----------12---|

Here's the beginning of the solo. The spacing is not
supposed to accurate here, I'm just putting the notes.

|----------------------------------------------------|
|----------------------------------------------------|
|----------------------------------------12v---------|
|12-14-14-14-14p12-----------------12-14-------------|
|-----------------14-14p12---12-14-------------------|
|-------------------------15-------------------------|

|------------------------------------------------------------|
|--------------12-15p12--------------------------------------|
|-----12-14v-----------14p12--12-14--12------------12--------|
|-/14-----------------------14-----------14v---/14----14v----|
|------------------------------------------------------------|
|------------------------------------------------------------|

|----------------------------------------------|
|-----12h15p12-15b--15rp12-15b-15p12-----------|
|-/14-------------------------------14-12------|
|-----------------------------------------14---|
|----------------------------------------------|
|----------------------------------------------|

then some really fast stuff i can't figure out

he repeats this lick a few times through out the solo.
|---------12--15p12-14p12-15p12-14p12-15p12-14p12-15p12-14p12-|
|-12--15------------------------------------------------------|
|-------------------------------------------------------------|
|-------------------------------------------------------------|
|-------------------------------------------------------------|
|-------------------------------------------------------------|

|-15p12-14p12-15p12-14p12-15p12-14p12-15p12-14p12-15b---------|
|-------------------------------------------------------------|
|-------------------------------------------------------------|
|-------------------------------------------------------------|
|-------------------------------------------------------------|
|-------------------------------------------------------------|

This is played a few times at the end:
|---------------------------------------------|
|---------------------------------------------|
|---------------------------------------------|
|------12-----12-----12-----12----------------|
|-12h14--12h14--12h14--12h14--14p12\10--------|
|---------------------------------------12v---|

Im Going Home Tab by Ten Years After

Intro - 
----------------------------------------------5--|
------------------------------------------5-7----|
---5-7-8-7-5-7-5---7---5-7-5----------4-5--------|
-7---------------7---7-------7-5-7--7------------|
-------------------------------------------------|
-------------------------------------------------|

-----8-10-11-10-8-10-8----8----------|
-10b-------------------10---10-8-10--|
-------------------------------------|
-------------------------------------|
-------------------------------------|
-------------------------------------|

-8-11-8-10-8-----8-11-8-10--8-----8-11-8-10-8-----|
-------------10----------------10-------------10--|
--------------------------------------------------|
--------------------------------------------------|
--------------------------------------------------|
--------------------------------------------------|

-----------------5----------------------|
----------------------------------------|
-9-8-5-7-5----7b---8-7-5-7-5---5--------|
-----------7-----------------7---7-5-7--|
----------------------------------------|
----------------------------------------|

----------------------------5-------------------5--|
--------------------------------------------5-7----|
--5-7-8-7-5-7-5---5-----7b----8-7-5-----5-6--------|
-7---------------7------------------5-5------------|
---------------------7-----------------------------|
---------------------------------------------------|

------------------|
-8----------------|
---8-7-5-6--------|
-----------5------|
-------------7-7--|
------------------|


Repeat the intro with some variations.


Chorus - "I'm Going Home . . ."  "To see my baby . . ."
--------------------------------|------------------------------|
-----7-8-10b-10b-------7-8-10b--|------7h8-10b-10b------8-10b--|
-9b----------------9b-----------|--9b---------------9b---------|
--------------------------------|------------------------------|
--------------------------------|------------------------------|
--------------------------------|------------------------------|
                                           
                                   
Verse - (Boogie-Woogie Baby!)
------------------------------------------|
------------------------------------------|
------------------------------------------|
-2-4--2-4--2-4--2-4---2-4--2-4--2-4--2-4--|
-0-0--0-0--0-0--0-0---0-0--0-0--0-0--0-0--|
------------------------------------------|               

------------------------------------------|
------------------------------------------|
-2-4--2-4--2-4--2-4-----------------------|
-0-0--0-0--0-0--0-0---2-4--2-4--2-4--2-4--|
----------------------0-0--0-0--0-0--0-0--|
------------------------------------------|
                                                                              
------------------------------------------|
------------------------------------------|
-4-6--4-6--2-4--2-4-----------------------|
-2-2--2-2--0-0--0-0---2-4--2-4--2-4--2-4--|
-0-0--0-0-------------0-0--0-0--0-0--0-0--|
------------------------------------------|

Good Times Bad Times Tab by Led Zeppelin

Led Zeppelin
Good Times Bad Times
Tabber:Brian Gelvin


This is somewhat an easy song once you get the patern and speed right.
The 2 guitar lines will not be
completly lined up, but I'll do my best.
There are 3 guitars elctric 6-strings 1, 2, and 3
Standard tuning.

Key:
\=slide down
/=slide up
BB=bend 2 full steps
Bb=bend 1 and a half step
B=bend a full step
b=bend a half step
^=bend one-forth step
R=return bend
~=vibrato
x=finger mute
H=hammer
PM=palm mute
p=pull off
Intro:Guitar 1


|------------------------------------------------------------|
|9--9--------9--9--------9--9--------9--9--------9--9--------|
|9--9--------9--9--------9--9--------9--9--------9--9--------|
|9--9--------9--9--------9--9--------9--9--------9--9--------|
|7--7--------7--7--------7--7--------7--7--------7--7--------|
|------------------------------------------------------------|
|                                                      In the
|Guitar 2
|------------------------------------------------------------|
|------------------------------------------------------------|
|9--9--------9--9--------9--9--------9--9--------------------|
|9--9--------9--9--------9--9--------9--9--------9--9--------|
|7--7--------7--7--------7--7--------7--7--------7--7--------|
|0--0--------0--0--------0--0--------0--0--------0--0--------|

Verse 1:
|----------------------------------------------------|
|9--9\-----------7---7-------------------9--9\-------|
|9--9\-----------7---7-------------------9--9\-------|
|9--9\---------7---7---7---4-7-----------9--9\-------|
|7--7\-------5-----------5-----4~~~5--6--7--7\-------|
|----------------------------------------------------|
|days of my youth I was told what it means to be a man.__
|
|----------------------------------------------------|
|----------------------------------------------------|
|9--9------------7---7-------------------9--9\-------|
|9--9----------7---7---7---4-7-----------9--9\-------|
|7--7--------5-----------5-----4~~~5--6--7--7\-------|
|0--0------------------------------------0--0\-------|

PM-|
|--------------------------------------------------------------------|
|----7---7-------------------9--9\---------------7-------------------|
|----7---7-------------------9--9\-----------7---7-7-----------------|
|--7---7---7---4-7-----------9--9\---------7---7---7---4-7-----------|
|5-----------5-----4~~~5--6--7--7\-------5-----------5-----4~~~5--6--|
|--------------------------------------------------------------------|
| And now I've reached that age I've tried to do all those things the best I
|
|--------------------------------------------------------------------|
|----7---7-----------------------------------7---7-7-----------------|
|----7---7-------------------9--9\-----------7---7-7-----------------|
|--7---7---7---4-7-----------9--9\---------7---7-------4-7-----------|
|5-----------5-----4~~~5--6--7--7\-------5-----------5-----4~~~5--6--|
|----------------------------0--0------------------------------------|


|----------------------------------------------------------------------------------------|
|9--9^-----------------------------------9--9\-------------------------------------------|
|9--9^-----------7---7-------------------9--9\-----------7---7---------------------------|
|9--9^---------7---7---7---4-7-----------9--9\---------7---7---7---4-7-------------------|
|7--7^-------5-----------5-----4~~~5--6--7--7\-------5-----------5-----4~~~5/-6/-7~~~~~~-|
|----------------------------------------------------------------------------------------|
|can._                           No mat-ter how I try find my way in-to the same old jam.
|                         PM|
|---------------------------------------------------------------------------------------|
|--------------------------------------------------------7------------------------------|
|9--9^-----------7---7-------------------9--9^-----------7-----------------------9--9^--|
|9--9^---------7---7---7-----7-----------9--9^---------7---7---7---4-7-----------9--9^--|
|7--7^-------5-----------5-0---4~~~5--6--7--7^-------5-------5---5-----4~~~5--6--7--7^--|
|0--0------------------------------------0--0------------------------------------0--0---|

                            Chorus:
|------------------------------------------------------------------------------------------|
|------------------------------------------------------------------------------------------|
|-----7---7-----------------------2--------------------------------------------------------|
|-------7---7---4-7-------------------------------------------------------2-2--2----7\-5/7-|
|0-5H---------5-----4~~~5--6----------------------------------------------0-0--0--0--------|
|-----------------------------4/5---------------------------------------0------------------|
|                            Good times, bad times, you know I've had my share.___ Well, my
|
|----------------------------3/5--3--x-x----------------------------5\-x-x----10-----------|
|----------------------------3/5--5--x-x-7-12-12-10--10-10-0-3/5----5\-x-x-12-12----7-7-7\-|
|----7---7-------------------4/6--6--x-x-7-12-12-11--11-11-0-4/6----6\-x-x-12-12--7-7-7-7\-|
|0-7---7---7---4-7-----------5/7--7--x-x-7-12-12-12--12-12-0-5/7-7--7\-x-x-12-12--7-7-7-7\-|
|0-5---------5-----4~~~5--6--5/7--7--x-x-5-10-10-12--12-12-0-5/7-7--7\-x-x-10-10--5-5-5-5\-|
|----------------------------3/5--5------5-10-10-10--10-10---3/5-5--5\-----10--------------|


|----------------------------------------------------------|
|----------------------------------------------------------|
|--------------------------------------------------4\------|
|7/-9--9--9--9--9--9--9--7/9-9--9--9--7/9-9--9--9----------|
|--------------------------------------------------2\------|
|5/-7--7--7--7--7--7--7--5/7-7--7--7--5/7-7--7--7----------|
|woman left home for a brown eyed man But I still don't seem to care.___
|
|--------7-----------------------------7-------------------|
|--------7--14--14-14--12-12-12--------7-------------------|
|--------8--14--14-14--13-13-13--------8-------------------|
|--------9--14--14-14--14-14-14--------9----9--9--9--9--9\-|
|7--7----9--12--12-12--14-14-14--9--9--9----9--9--9--9--9\-|
|9--9-------12--12-12--12-12-12--7--7-------7--7--7--7--7\-|
           |__3__|
Guitars 1 & 2
|--------------------------------------------------|
|--------------------------------------------------|
|--------11p9-11-x-4p2-4----------11p9-11--4p2-4p2-|
|--------11p9-11-x-4p2-4----------11p9-11--4p2-4p2-|
|4--4--------------------------4-------------------|
|2--2-----------------------2--2-------------------|
Six-teen I fell in love with a girl as sweet as could be.  It

|----------------------------------------------------|
|----------------------------------------------------|
|--------11p9-11--4p2-4-x----------11p9-11--4p2--4p2-|
|--------11p9-11--4p2-4-x----------11p9-11--4p2--4p2-|
|---4---------------------------4--------------------|
|2--2------------------------2--2--------------------|
only took a couple of days 'till she was rid of me._   She

|---------------------------------------------------|
|---------------------------------------------------|
|--------11p9-11--4p2-4p2----------11p9-11--4p2-4p2-|
|--------11p9-11--4p2-4p2----------11p9-11--4p2-4p2-|
|---4---------------------------4-------------------|
|2--2------------------------2--2-------------------|
swore that she would be all mine and love me'till the end, but

|-----------------------------------------------------|
|-----------------------------------------------------|
|--------------------------------------------------*--|
|--------11p9-11--4-2-4-2----------11p9-11--4p2-4/(5)-|*Parenthesised notes
|--------11p9-11--4-2-4-2----------11p9-11--4p2-4/(5)-| are played by
|---4--------------------------4----------------------| Guitar 1 only.
|2--2-----------------------2--2----------------------|
when I whispered in her ear I lost another friend.  Oh!

Guitar 1
|-------------------------------------------------------|
|4----4--4----------------------------------------------|
|4----4--4---2--2---1-1-----------4-4-----2-2-2---1-1---|
|4----4--4-2-2--2---2-2-0-4--4--4-4-4-0-2-2-2-2---2-2-0-|
|2----2--2-0------0-2-2---2--2--2-----0-0---0-0-2-2-2-0-|
|-----------------2-----------------------------0-------|
|Good times, bad times, you know I've had my share.  Well, my
|Guitar 2
|-------------------------------------------0----0-0-0--|
|4-----4----4---2-2-2---0--------4----------2----0-0-0--|
|4-----4----4---2-2-2---1--------4-4-4-4----2----1-1-1--|
|4-----4----4---2-2-2---2--4--4--4-4-4-4----2----2-2-2--|
|2--2--2----2---0-0-0-2-2--2--2----2-2-2----0----2-2-2--|
|-------------0-------0-------------------0-----0-------|


|--------------7-7--------------------------------------------------------------|
|/6----6-------7-7----11-11-11-------------------------------------0------------|
|/6----6-------8-8----11-11-11--------------------------------------------------|
|/6----6----/9-9-9----11-11-11------------11--11--11--11----------------11------|
|/4----4----/9-9-9--9----9--9-----11--11--11--11--11--11--11--11\-------11------|
|-----------/7---7-------------9--9---9---9---9---9---9---9---9-\-------9-------|
|wo-man left home for a brown eyed man,__ but I still don't seem to care._____
|
|-------------------------------------------------------------------------------|
|4/6-6--6--6-6-12--x-10--10-10-10--------------------------------------------6--|
|4/6-6--6--6-6-11--x-11--11-11-11--------------------------------------------6--|
|4/6-6--6--6-6-11--x-11--11-11-11-9/11-11--11--11--11--11--11--11--11--11----6--|
|2/4-4--4--4-4-9---x-9---9--9--9--9/11-11--11--11--11--11--11--11--11--11----4--|
|---------------------------------7/9--9---9---9---9---9---9---9---9---9--------|

Solo:Guitar 1
|-------12--------12-12----12--------12-------------------|
|----12--------12-------12--------12----------------------|
|14B-------14B----------------14b-------14BR12H----14-12--|
|-----------------------------------------------14--------|
|---------------------------------------------------------|
|---------------------------------------------------------|
|
|Guitar 2
|--------------------------------------------------------|
|--------------------------------------------------------|
|----------------9-----------7--7--7---------------------|
|----------------9-----------7--7--7--7----7----7--------|
|7--------7------7---4/-5----5--5--5--7----7----7--------|
|0--------0---------------------------5----5----5--------|
|
|Guitar 3
|--------------------------------------------------------|
|*-------------------------------------------------------|
|9\------------------------------------------------------|
|9\------------------------------------------------------|
|7\------------------------------------------------------|
|--------------------------------------------------------|
*Gruadually slide on all of the guitar 3 parts.

|------------------------------------------------|
|---------------------------15-------------------|
|------12^----12-14-12-14b-----14--12H-14-12--0--|
|14-14-----14------------------------------------|
|------------------------------------------------|
|------------------------------------------------|
|
|
|------------------------------------------------|
|------------------------------------------------|
|----------9-----------7---7---7-----------------|
|----------9-----------7---7---7---7---7---------|
|7------7--7---4/----5-5---5---5---7---7---------|
|0------0--------------------------5---5---------|
|
|
|------------------------------------------------|
|------------------------------------------------|
|9\----------------------------------------------|
|9\----------------------------------------------|
|7\----------------------------------------------|
|------------------------------------------------|

   |_____*_______|
|--|-------------|------------------|
|20BB-------------17-17-17~~~20-17--|
|-----------------------------------| *hold the bend then evenly release it.
|-----------------------------------|
|-----------------------------------|
|-----------------------------------|
|
|
|-----------------------------------|
|-----------------------------------|
|------9-------7--7--7--------------|
|------9-------7--7--7--7--7--7--7--|
|7--7--7---4/5-5--5--5--7--7--7--7--|
|0--0-------------------5--5--5--5--|
|
|
|-----------------------------------|
|-----------------------------------|
|9\---------------------------------|
|9\---------------------------------|
|7\---------------------------------|
|-----------------------------------|

                |____3___|
|---------------|*--*-*--|-------------------|
|20B--20--17----17-20-17H----17--------------|
|------------19-----------19----19-19B~x-x-x-| *these 3 notes are
|--------------------------------------x-x-x-| thirdy second
|--------------------------------------------| notes
|--------------------------------------------|
|
|
|--------------------------------------------|
|--------------------------------------------|
|--------9--------7--7--7--------------------|
|--------9--------7--7--7---7---7---7---7----|
|7---7---7----4/5-5--5--5---7---7---7---7----|
|0---0----------------------5---5---5---5----|
|
|
|--------------------------------------------|
|--------------------------------------------|
|9\------------------------------------------|
|9\------------------------------------------|
|7\------------------------------------------|
|--------------------------------------------|


|-------------------------------------------------------------12----12-|
|-------------------------------------------12----12-15p12-15-12-15----|
|-------------------------12----12-14p12-14----14----------------------|
|------12----12-14p12-14H-12-14----------------------------------------|
|14-14----14-----------------------------------------------------------|
|----------------------------------------------------------------------|
|
|
|----------------------------------------------------------------------|
|----------------------------------------------------------------------|
|------------9------------7----7----7----------------------------------|
|------------9------------7----7----7----7----7----7----7--------------|
|7-----7-----7-------4/5--5----5----5----7----7----7----7--------------|
|0-----0---------------------------------5----5----5----5--------------|
|
|
|-----------------------------------------------------------------------|
|-----------------------------------------------------------------------|
|9\---------------------------------------------------------------------|
|9\---------------------------------------------------------------------|
|7\---------------------------------------------------------------------|
|-----------------------------------------------------------------------|

NOTE:The 2nd guitar is to be played
with guitar 1 evenly but the solo is
big and I can't fit all of guitar 1's
stuff to match the 2nd guitar.

|15B--15~15^~----------17b-17B-17b-17B-17b-17B-|
|------------17-15^-17-------------------------|
|----------------------------------------------|
|----------------------------------------------|
|----------------------------------------------|
|----------------------------------------------|
|
|
|----------------------------------------------|
|----------------------------------------------|
|---------9----------7---7---------------------|
|---------9----------7---7----7---7---7---7----|
|7----7---7----4/5---5---5----7---7---7---7----|
|0----0-----------------------5---5---5---5----|
|
|
|----------------------------------------------|
|----------------------------------------------|
|9\--------------------------------------------|
|9\--------------------------------------------|
|7\--------------------------------------------|
|----------------------------------------------|


|17B-15----15-17--17p16--17--16-17p16-17B-15b--|
|-------17-------------------------------------|
|----------------------------------------------|
|----------------------------------------------|
|----------------------------------------------|
|----------------------------------------------|
|
|
|----------------------------------------------|
|----------------------------------------------|
|-------------9----------------7--7------------|
|-------------9----------------7--7--7----7----|
|7------7-----7-------4-/-5----5--5--7----7----|
|0------0--------------------------------------|
|
|
|----------------------------------------------|
|----------------------------------------------|
|9\--------------------------------------------|
|9\--------------------------------------------|
|7\--------------------------------------------|
|----------------------------------------------|


|----------------------------------------|
|17~~17~17~17-15B-17BB--------15~~~~~~~~-|
|----------------------------------------|
|----------------------------------------|
|----------------------------------------|
|----------------------------------------|
|
|
|---------------------------------------|
|---------------------------------------|
|------9--------7--7--------------------|
|------9--------7--7---7----------------|
|7--7--7---4/5--5--5---7----------------|
|0--0------------------5----------------|
|
|
|---------------------------------------|
|---------------------------------------|
|9\-------------------------------------|
|9\-------------------------------------|
|7\-------------------------------------|
|---------------------------------------|

Guitar 1
|----------------------------------|
|----------------------------------|
|----------------------------------|
|7---7---7---7----------7---7/-5---|
|-------------------0--------------|
|----------------------------------|
|Good times, bad times,_____  you
|Guitar 2
|---5--5--x-x-----x-10------10-10--|
|---5--5--x-x-12--x-10------10-10--|
|---6--6--x-x-12--x-11------11-11--|
|---7--7--x-x-12--x-12------12-12--|
|7--7--7--x-x-10----12------12-12--|
|5--5--5------------10------10-10--|


|------------------------------------|
|------------------------------------|
|----------------------2---2---2--2--|
|5-7H---7---7--7-------2---2---2--2--|
|------------------0-----------0--0--|
|------------------------------------|
|know I've had my share.__  Well, my
|
|-----5-5-x-x------------------------|
|-----5-5-x-x-12-12-12-12-10-10--10--|
|-----6-6-x-x-12-12-12-12-11-11--11--|
|-----7-7-x-x-12-12-12-12-12-12--12--|
|7----7-7-----10-10-10-10-12-12--12--|
|5------------------------10-10--10--|


|-----------------------------|
|-----------------------------|
|-----------4~~~~~~4--4-4-4---|
|4--4-------4~~~~~~4--4-4-4---|
|2--2--2~~~~2~~~~~~2--2-2-2---|
|-----------------------------|
|woman left home for a brown eyed man,_ but I
|
|------7--x-x-------x-------x-|
|------7--x-x-14-14-x-12-12-x-|
|------8--x-x-14-14-x-13-13-x-|
|------9--x-x-14-14-x-14-14-x-|
|9--9--9------12-12---14-14---|
|7--7---------12-12---12-12---|

|----------------------------------|
|----------------------------------|
|4--4--4--4--4--4--4--4--4---------|
|4--4--4--4--4--4--4--4--4---------|
|2--2--2--2--2--2--2--2--2---------|
|----------------------------------|
|still don't seem to care._________
|
|----------------------------------|
|----------------------------------|
|----------------------------------|
|7/-9------------------------------|
|7/-9--9--9--9--9--9--9------------|
|5/-7--7--7--7--7--7--7--7---------|


|12-----------------------------------------------------------------------|
|---15p12----12----12-----------------------------------------------------|
|---------14----14----14-12-14Hp12----12----------------------------------|
|----------------------------------14----14p12-14p12----12----------------|
|----------------------------------------------------14----14p12-14p12p10-|
|-------------------------------------------------------------------------|
|
|
|-------------------------------------------------------------------------|
|-------------------------------------------------------------------------|
|9---9\-------------------------------------------------------------------|
|9---9\-------------------------------------------------------------------|
|7---7\-------------------------------------------------------------------|
|0---0--------------------------------------------------------------------|
    Gruadually slide down

|-----------------------------------|
|-----------------------------------|
|-----------------------------------|
|-----------------------------------|
|12p10------------------------------|
|------12-10~~~~10-10~~~~~~~~10/11--|
|
|
|-----------------------------------|
|-----------------------------------|
|----7---7-7------------------------|
|--7---7-7-7---4-7------------------|
|5-----------5-----4~~~~5---6-------|
|-----------------------------------|


|-------------------15B--15B--15B--15B--15B--15~~~~-|
|17~~~~~~-----------15B--15B--15B--15B--15B--15~~~~-|
|---------------------------------------------------|
|---------------------------------------------------|
|---------------------------------------------------|
|---------------------------------------------------|
|I don't care__ what the neigh-bors____  say,______
|
|--------------------------------------------------|
|--------------------------------------------------|
|9--9----------------------7-----------------------|
|9--9----------------7---7---7---7---4-7-----------|
|7--7------------------5-------5---5-----4~~~~5--6-|
|0--0----------------------------------------------|


|15~~~~~~~~~~~~~~~~~~~~~~--------------------------|
|15~~~~~~~~~~~~~~~~~~~~~~--------------------------|
|--------------------------------------------------|
|--------------------------------------------------|
|--------------------------------------------------|
|--------------------------------------------------|
|I'm gon-na love____ you each and ev-'ry day.______
|
|--------------------------------------------------|
|--------------------------------------------------|
|9--9----------------------7---7-------------------|
|9--9--------------------7---7---7---4-7-----------|
|7--7------------------5-----------5-----4~~~~5--6-|
|0--0----------------------------------------------|


|--------------------------------------------------------------|
|-----------------------------20B--20B-20b-20B-20b-20B-20b-20B-|
|--------------------------------------------------------------|
|--------------------------------------------------------------|
|--------------------------------------------------------------|
|12~~~~~~~~~~~-------------------------------------------------|
|I know what it means to be a-lone,____
|
|--------------------------------------------------------------|
|--------------------------------------------------------------|
|9--9-----------------------------7-----7----------------------|
|9--9-----------------------------7-7-7-----4-7----------------|
|7--7------------------------0-5H---------5-----4~~~~~~~5--6---|
|0--0----------------------------------------------------------|


|--------------------0------------19BB-----------20BB----------|
|20B--20~~~~~~~---0---------------19Bb---20BB------------------|
|--------------------------------------------------------------|
|--------------------------------------------------------------|
|--------------------------------------------------------------|
|--------------------------------------------------------------|
|I sure wish I was at home.____________
|
|--------------------------------------------------------------|
|--------------------------------------------------------------|
|9--9-------------------------------7--------------------------|
|9--9-----------------------------7---7---7---4-7--------------|
|7--7---------------------------5-------5---5-----4~~~~~5--6---|
|0--0----------------------------------------------------------|

Begin Fade
|14b---------------------14b-14b---14b-------------------------|
|----14B-14----14-14~~---14b-------14b--14~~~~~~~~~~~~~~~~-----|
|-----------14--------14----------------14~~~~~~~~~~~~~~~~14---|
|--------------------------------------------------------------|
|--------------------------------------------------------------|
|--------------------------------------------------------------|
|                       You can feel the beat__ with-in__ my
|
|--------------------------------------------------------------|
|--------------------------------------------------------------|
|9--9-----------------------7---7------------------------------|
|9--9---------------------7---7---7---4-7----------------------|
|7--7-------------------5-----------5-----4~~~~~~4--5---6------|
|0--0----------------------------------------------------------|


|-------------------------------------------------------------------|
|15-----------------------------------------------------------------|
|---14p12-------14p12-----------------------------------------------|
|---------14-12-------14p12-14p12----12-----------------------------|
|---------------------------------14----14p12\10-12p10----10-12Hp10-|
|------------------------------------------------------12-----------|
|heart._______
|
|-------------------------------------------------------------------|
|-------------------------------------------------------------------|
|9--9---------------------------------------------------------------|
|9--9---------------------------------------------------------------|
|7--7---------------------------------------------------------------|
|0--0---------------------------------------------------------------|


|-------------------------------------------------|
|-------------------------------------------------|
|-------------------------------------------------|
|-------------------------------------------------|
|-------------------------------------------------|
|10~~~~~~~5b---5~~~~~~~~~~~~~~~~~~~~~~~~~~~~~~~~~-|
|Realize sweet babe we ain't never gonna part.__
|
|------------------------------------------------|
|------------------------------------------------|
|----7---7-------------------9--9----------------|
|--7---7---7---4-7-----------9--9----------------|
|5-----------5-----4~~~5--6--7--7----------------|
|----------------------------0--0----------------|


|--------17B--17\15----17-15-17-15-17--15-15/16~~~~~~~---|
|-------------------17-----------------------------------|
|--------------------------------------------------------|
|--------------------------------------------------------|
|--------------------------------------------------------|
|--------------------------------------------------------|
|
|                                                Fade out
|--------------------------------------------------------|
|--------------------------------------------------------|
|-----7---7------------------------9---9-----------------|
|-------7---7---4-7----------------9---9-----------------|
|0-5H---------5-----4~~~~~~5---6---7---7-----------------|
|----------------------------------0---0-----------------|

Whole Lotta Love Tab by Led Zeppelin

Tuning: (E,A,D,G,B,e)


     Gtr. 1     Intro:    
e-|--------------------------|-----------------------------------|-
B-|--------------------------|-----------------------------------|-
G-|--------------------------|-----------------------------------|-
D-|----------------0)----0)--|--9-------9-------9-------9--------|-
A-|----------------5-----5---|--7-------7-------7-------7--------|-
E-|-------------7-----7------|--0-0-0-0-0-0-0-0-0-0-0-0-0-0-0-0--|-
                   * Bend 1/4 step

e-|-----------------------------------|-----------------------------------|-
B-|-----------------------------------|-----------------------------------|-
G-|-----------------------------------|-----------------------------------|-
D-|--9-------9-------9-9----0)----0)--|--9-------9-------9-------9--------|-
A-|--7-------7-------7-7----5-----5---|--7-------7-------7-------7--------|-
E-|--0-0-0-0-0-0-0-0-0-0-7-----7------|--0-0-0-0-0-0-0-0-0-0-0-0-0-0-0-0--|-

                                         Verse:
e-|-----------------------------------|-----------------------------------|-
B-|-----------------------------------|-----------------------------------|-
G-|-----------------------------------|-----------------------------------|-
D-|--9-------9-------9-9----0)----0)--|--9-------9-------9------0)----0)--|-
A-|--7-------7-------7-7----5-----5---|--7-------7-------7------5-----5---|-
E-|--0-0-0-0-0-0-0-0-0-0-7-----7------|--0-0-0-0-0-0-0-0-0-0-7-----7------|-

e-|-----------------------------------|-----------------------------------|-
B-|-----------------------------------|-----------------------------------|-
G-|-----------------------------------|-----------------------------------|-
D-|--9-------9-------9------0)----0)--|--9-------9-------9------0)----0)--|-
A-|--7-------7-------7------5-----5---|--7-------7-------7------5-----5---|-
E-|--0-0-0-0-0-0-0-0-0-0-7-----7------|--0-0-0-0-0-0-0-0-0-0-7-----7------|-

e-|-----------------------------------|-----------------------------------|-
B-|-----------------------------------|-----------------------------------|-
G-|-----------------------------------|-----------------------------------|-
D-|--9-------9-------9------0)----0)--|--9-------9-------9------0)----0)--|-
A-|--7-------7-------7------5-----5---|--7-------7-------7------5-----5---|-
E-|--0-0-0-0-0-0-0-0-0-0-7-----7------|--0-0-0-0-0-0-0-0-0-0-7-----7------|-

e-|-----------------------------------|-----------------------------------|-
B-|-----------------------------------|-----------------------------------|-
G-|-----------------------------------|-----------------------------------|-
D-|--9-------9-------9------0)----0)--|--9-------9-------9------0)----0)--|-
A-|--7-------7-------7------5-----5---|--7-------7-------7------5-----5---|-
E-|--0-0-0-0-0-0-0-0-0-0-7-----7------|--0-0-0-0-0-0-0-0-0-0-7-----7------|-
                                                             
                                                             Chorus: 
e-|-----------------------------------|---------------------------------|-
B-|-----------------------------------|----------------------7--7-7--7--|-
G-|-----------------------------------|----------------------7--7-7--7--|-
D-|--9-------9-------9------0)----0)--|--9-------9-------9---7--7-7--7--|-
A-|--7-------7-------7------5-----5---|--7-------7-------7---5--5-5--5--|-
E-|--0-0-0-0-0-0-0-0-0-0-7-----7------|--0-0-0-0-0-0-0-0-0-0------------|-
      
     Gtr. 1
e-|---------------------------------|---------------------------------|-
B-|----------------------7--7-7--7--|----------------------7--7-7--7--|-
G-|----------------------7--7-7--7--|----------------------7--7-7--7--|-
D-|--9-------9-------9---7--7-7--7--|--9-------9-------9---7--7-7--7--|-
A-|--7-------7-------7---5--5-5--5--|--7-------7-------7---5--5-5--5--|-
E-|--0-0-0-0-0-0-0-0-0-0------------|--0-0-0-0-0-0-0-0-0-0------------|-
  |                                 |                                 |
  |  Gtr. 2  w/ slide               |                                 |      
e-|---------------------------------|---------------------------------|-
B-|---------------------------------|---------------------------------|-
G-|------9\-------------------------|------9\-------------------------|-
D-|------9\-------------------------|------9\-------------------------|-
A-|---------------------------------|---------------------------------|-
E-|---------------------------------|---------------------------------|-

e-|---------------------------------|-----------------------------------|-
B-|----------------------7--7-7--7--|-----------------------------------|-
G-|----------------------7--7-7--7--|-----------------------------------|-
D-|--9-------9-------9---7--7-7--7--|--9-------9-------9------0)----0)--|-
A-|--7-------7-------7---5--5-5--5--|--7-------7-------7------5-----5---|-
E-|--0-0-0-0-0-0-0-0-0-0------------|--0-0-0-0-0-0-0-0-0-0-7-----7------|-
  |                                 |                                   |
  |                                 |                                   |      
e-|---------------------------------|-----------------------------------|-
B-|---------------------------------|-----------------------------------|-
G-|------9\-------------------------|------9\---------------------------|-
D-|------9\-------------------------|------9\---------------------------|-
A-|---------------------------------|-----------------------------------|-
E-|---------------------------------|-----------------------------------|-

Repeat from verse

Guitar solo:


     Gtr. 1
e-|----------------------------------------------------------|-
B-|--9----9--------------------------------------------------|-
G-|--9----9--------------------------------------------------|-
D-|--9----9--------------------------------------------------|-
A-|--7----7--------------------------------------------------|-
E-|----------------------------------------------------------|-
  |                                                          |
  |  Gtr. 2      1                                    1      |
e-|--------------------12------------------------------------|-
B-|--------------)-12------15p12----------------------)~~~~--|-
G-|------------14-----------------15p14p12--14--12--14-------|-
D-|----------------------------------------------------------|-
A-|----------------------------------------------------------|-
E-|----------------------------------------------------------|-


e-|--------------------------------------------------------|-
B-|--9----9------------------------------------------------|-
G-|--9----9------------------------------------------------|-
D-|--9----9------------------------------------------------|-
A-|--7----7------------------------------------------------|-
E-|--------------------------------------------------------|-
  |                                                        | 
  |                                                        |
e-|--------------------------------------------------------|-
B-|-----------------3--------------------------------------|-
G-|------------2/4-----4p2p0--4p2p0------------------------|-
D-|----------------------------------2p0-----2p0-----------|-
A-|---------------------------------------2-------2-0h2----|-
E-|--------------------------------------------------------|-

e-|-----------------------------------------------|-
B-|--9----9---------------------------------------|-
G-|--9----9---------------------------------------|-
D-|--9----9---------------------------------------|-
A-|--7----7---------------------------------------|-
E-|-----------------------------------------------|-
  |                                               |
  |              1           1   1        1       | 
e-|--------------------12----)---)---15---)~~~----|-
B-|--------------)-12------15--15-------15--------|-
G-|------------14---------------------------------|-
D-|-----------------------------------------------|-
A-|-----------------------------------------------|-
E-|-----------------------------------------------|-

e-|----------------------------------------------------|-
B-|--9----9--------------------------------------------|-
G-|--9----9--------------------------------------------|-
D-|--9----9--------------------------------------------|-
A-|--7----7--------------------------------------------|-
E-|----------------------------------------------------|-
  |                                                    | 
  |                    2                               |  
e-|--------------------)''''''''\----------------------|-
B-|------------17----20------------17------20p17~~~----|-
G-|------------------------------------18--------------|-
D-|----------------------------------------------------|-
A-|----------------------------------------------------|-
E-|----------------------------------------------------|-

e-|-----------------------------------------------------|-
B-|--9----9---------------------------------------------|-
G-|--9----9---------------------------------------------|-
D-|--9----9---------------------------------------------|-
A-|--7----7---------------------------------------------|-
E-|-----------------------------------------------------|-
  |                  1                                  |
  |                  )                                  |
e-|----------------19----19--18--17---------------------|-
B-|------------17--------------------20p17--20p17~~~----|-
G-|-----------------------------------------------------|-
D-|-----------------------------------------------------|-
A-|-----------------------------------------------------|-
E-|-----------------------------------------------------|-

e-|---------------------------------------------------|-
B-|--9----9-------------------------------------------|-
G-|--9----9-------------------------------------------|-
D-|--9----9-------------------------------------------|-
A-|--7----7-------------------------------------------|-
E-|---------------------------------------------------|-
  |                                                   |
  |                     1/2 1/2 1/2   1               | 
e-|----------------------)---)---)----)--19-----------|-
B-|------------17--19--19--19--19---19-------17~~~----|-
G-|---------------------------------------------------|-
D-|---------------------------------------------------|-
A-|---------------------------------------------------|-
E-|---------------------------------------------------|-

Then play verse and chorus again, then there is a
break with no instruments just vocals. At the end 
of the break play B5 and A5.

At the end the main riff changes to this, but the 
main riff is still played sometimes.
 
e-|---------------------------|---------------------------------|-
B-|---------------------------|---------------------------------|-
G-|---------------------------|---------------------------------|-
D-|-----------------0)-----7--|--9-------9-------9-----0)----7--|-
A-|-----------------5------5--|--7-------7-------7-----5-----5--|-
E-|--------------7------7-----|--0-0-0-0-0-0-0-0-0-0-7----7-----|-

e-|----------------------------------|----------------------------------|-
B-|----------------------------------|----------------------------------|-
G-|----------------------------------|----------------------------------|-
D-|--9-------9-------9------0)----7--|--9-------9-------9------0)----7--|-
A-|--7-------7-------7------5-----5--|--7-------7-------7------5-----5--|-
E-|--0-0-0-0-0-0-0-0-0-0-7-----7-----|--0-0-0-0-0-0-0-0-0-0-7-----7-----|-

Black Dog Tab by Led Zeppelin

Black Dog
Led Zeppelin
Zeppelin IV

Tabbed By: Matt Lenda

here it is, as close as is possible.  fun to listen to, better to play.
sometimes when my tabs get loaded into the site's databse, the alignment of the
words above the tabs are not perfect... if they are good... great... if they
aren't spaced properly... too bad.

Notes:
-If lyrics are directly above tab, with no space, the words are said
at the same time as the music is played
-If lyrics are one line above tab, the words are said before the music is played

Key:
h = hammer-on
p = pull-off
b = bend to indicated tone
r = return bend
> = sustain bend
/ = slide
| = measure marker
x = frethand mute/choke


?Hey, hey, mama, said the way you move, gonna make you sweat, gonna make you groove?

|------|----------------|-------------------|-------------------|---------|
|------|---------------5|-------------------|-------------------|---------|
|------|-----5-------7--|-5h7p5-----5-------|-------------------|---------|
|---5-6|-7-------7------|-------7-7-----7---|-5-7-7---------2---|2--------|
|-7----|---7------------|-------------------|-------5-7---5-0---|0--------|
|------|----------------|-------------------|-----------8-------|---------|

?Unh, uh, child, way you shake that thing, gonna make you burn, gonna make you sting?

|------|----------------|-------------------|-------------------|---------|
|------|---------------5|-------------------|-------------------|---------|
|------|-----5-------7--|-5h7p5-----5-------|-------------------|---------|
|---5-6|-7-------7------|-------7-7-----7---|-5-7-7---------2---|2--------|
|-7----|---7------------|-------------------|-------5-7---5-0---|0--------|
|------|----------------|-------------------|-----------8-------|---------|

?Hey, hey, baby when you walk that way, watch heatache drip, can?t keep away?

|------|----------------|-------------------|-------------------|---------|
|------|---------------5|-------------------|-------------------|---------|
|------|-----5-------7--|-5h7p5-----5-------|-------------------|---------|
|---5-6|-7-------7------|-------7-7-----7---|-5-7-7---------2---|2--------|
|-7----|---7------------|-------------------|-------5-7---5-0---|0-----5-6|
|------|----------------|-------------------|-----------8-------|----7----|

|----------------|----------------|-----------------|---------------|----------------|
|----------------|----------------|-----------------|---------------|---------------5|
|----------------|----------------|-----------------|---------------|-----5-------7--|
|-----5----------|-------5--------|---------5-------|------------5-6|-7-------7------|
|-7-------7-----5|-6-7-------7----|-5-6-7-------7---|--5-6-7-5-7----|---7------------|
|---7---------7--|-----7---------7|-------7---------|7--------------|----------------|

          ?Ah
|-------------------|----------------|--------------|
|-------------------|----------------|--------------|
|-5h7p5-----5-------|----------------|---------0---2|
|-------7-7-----7---|-5-7-7---------2|---2-----0---2|
|-------------------|-------5-7---5-0|---0-------3-0|
|-------------------|-----------8----|--------------|

  yeah,           ah  yeah            ah,       ah,   ah,                ah
|-------------------|-------------------|--------------|-------------------|
|-------------------|-------------------|--------------|-------------------|
|-4b(6)r4p2-4-2-----|-4b(6)r4p2-4-2-----|-------5-----2|-4b(6)r4p2---------|
|-------------------|-------------------|--------------|-----------4-2-----|
|-------------------|-------------------|--------------|---------------3---|
|-------------------|-------------------|--------------|-------------------|

  yeah,            ah     yeah            ah,    ah,   ah?
|-------------------|----------------------|------------------|---------|
|-------------------|----------------------|------------------|---------|
|-4b(6)r4p2-4-2----2|---2-4b(6)r4p2-4-2---2|-----5-----2-----2|---------|
|-------------------|----------------------|------------------|-2-------|
|-------------------|----------------------|------------------|-0-------|
|-------------------|----------------------|------------------|---------|

?I gotta roll, can?t stand still, gotta flamin? heart, can?t get my fill?

|------|----------------|-------------------|----------------------------|
|------|---------------5|-------------------|----------------------------|
|------|-----5-------7--|-5h7p5-----5-------|----------------------------|
|---5-6|-7-------7------|-------7-7-----7---|-5-7-7---------2---2--------|
|-7----|---7------------|-------------------|-------5-7---5-0---0--------|
|------|----------------|-------------------|-----------8----------------|

?Eyes that shine burnin? red, dreams of you all through my head?

|------|----------------|-------------------|-------------------|---------|
|------|---------------5|-------------------|-------------------|---------|
|------|-----5-------7--|-5h7p5-----5-------|-------------------|---------|
|---5-6|-7-------7------|-------7-7-----7---|-5-7-7---------2---|2--------|
|-7----|---7------------|-------------------|-------5-7---5-0---|0--------|
|------|----------------|-------------------|-----------8-------|---------|

?Ah ah ah ah ah ah ah ah ah ah ah ah ahhhhhhhhhhh?

?Hey hey  ba--by,  oh     ba--by,   pretty baby, darlin? can?t you do me now??
|--|---------------|--------------|-----------------|------------------------|
|--|---------------|-----5--------|-----------------|------------------------|
|-2|-----2--------2|-----5---2----|-----2-----2-----|------------------------|
|-2|-----2--------2|-----5---2----|-----2-----2----5|-----------------4------|
|-0|-----0--------0|-----3---0----|-----0-----0-----|------------------------|
|--|-3-------3-----|-4h5----------|-2h3-----3-------|------------------------|

|----------------|----------------|------------------|-------------|
|----------------|----------------|------------------|-------------|
|-----2---------2|-0h2-5---2-----2|-----2------------|------------2|
|-----2---------2|-0h2-5---2-----2|-----2-----------5|------4-----2|
|-----0---------0|---------0-----0|-----0------------|------------0|
|-3-------3------|----------------|-3-------3-5------|-------------|

?Hey  ba--by    oh     ba--by      pretty baby,move me while you do me now?
|----------------|----------------|------------------|------------------------|
|----------------|----------------|------------------|------------------------|
|-----2---------2|-0-2-5---2-----2|-----2------------|-----------------------2|
|-----2---------2|-0-2-5---2-----2|-----2-----------5|--------------4--------2|
|-----0---------0|---------0-----0|-----0------------|-----------------------0|
|-3-------3------|----------------|-3-------3-5------|------------------------|

|----------------|----------------|------------------|------------------|
|----------------|----------------|------------------|------------------|
|-----2---------2|-0-2-5---2-----2|-----2------------|------------------|
|-----2---------2|-0-2-5---2-----2|-----2-----------5|--------4---------|
|-----0---------0|---------0-----0|-----0------------|------------------|
|-3-------3------|----------------|-3-------3-5------|------------------|

?Didn?t take too long ?fore i found out what people mean by down and out?

|------|----------------|-------------------|----------------------------|
|------|---------------5|-------------------|----------------------------|
|------|-----5-------7--|-5h7p5-----5-------|----------------------------|
|---5-6|-7-------7------|-------7-7-----7---|-5-7-7---------2---2--------|
|-7----|---7------------|-------------------|-------5-7---5-0---0--------|
|------|----------------|-------------------|-----------8----------------|

?Spent my money, took my car, started tellin? her friends she gonna be a star?

|------|----------------|-------------------|-------------------|---------|
|------|---------------5|-------------------|-------------------|---------|
|------|-----5-------7--|-5h7p5-----5-------|-------------------|---------|
|---5-6|-7-------7------|-------7-7-----7---|-5-7-7---------2---|2--------|
|-7----|---7------------|-------------------|-------5-7---5-0---|0--------|
|------|----------------|-------------------|-----------8-------|---------|

?I dont know, but I?ve been told, a big legged woman ain?t got no soul?

|------|----------------|-------------------|-------------------|---------|
|------|---------------5|-------------------|-------------------|---------|
|------|-----5-------7--|-5h7p5-----5-------|-------------------|---------|
|---5-6|-7-------7------|-------7-7-----7---|-5-7-7---------2---|2--------|
|-7----|---7------------|-------------------|-------5-7---5-0---|0-----5-6|
|------|----------------|-------------------|-----------8-------|----7----|

|----------------|----------------|-----------------|---------------|----------------|
|----------------|----------------|-----------------|---------------|---------------5|
|----------------|----------------|-----------------|---------------|-----5-------7--|
|-----5----------|-------5--------|---------5-------|------------5-6|-7-------7------|
|-7-------7-----5|-6-7-------7----|-5-6-7-------7---|--5-6-7-5-7----|---7------------|
|---7---------7--|-----7---------7|-------7---------|7--------------|----------------|

          ?Ah
|-------------------|----------------|--------------|
|-------------------|----------------|--------------|
|-5h7p5-----5-------|----------------|---------0---2|
|-------7-7-----7---|-5-7-7---------2|---2-----0---2|
|-------------------|-------5-7---5-0|---0-------3-0|
|-------------------|-----------8----|--------------|

  yeah,           ah  yeah            ah,       ah,   ah,                ah
|-------------------|-------------------|--------------|-------------------|
|-------------------|-------------------|--------------|-------------------|
|-4b(6)r4p2-4-2-----|-4b(6)r4p2-4-2-----|-------5-----2|-4b(6)r4p2---------|
|-------------------|-------------------|--------------|-----------4-2-----|
|-------------------|-------------------|--------------|---------------3---|
|-------------------|-------------------|--------------|-------------------|

  yeah,            ah     yeah            ah,    ah,   ah?
|-------------------|----------------------|------------------|---------|
|-------------------|----------------------|------------------|---------|
|-4b(6)r4p2-4-2----2|---2-4b(6)r4p2-4-2---2|-----5-----2-----2|---------|
|-------------------|----------------------|------------------|-2-------|
|-------------------|----------------------|------------------|-0-------|
|-------------------|----------------------|------------------|---------|

?All i ask for, all I pray, steady loaded woman gonna come my way?

|------|----------------|-------------------|----------------------------|
|------|-----4-------7-8|-5h7p5-----4-------|----------------------------|
|---4-5|-6-------6------|-------6-6-----6---|-4-6-6----------------------|
|-7----|---7------------|-------------------|-------5-7---4--------------|
|------|----------------|-------------------|-----------7---7------------|
|------|----------------|-------------------|----------------------------|
||||||||||||||||||||||||||||||||||||||||||||||||||||||||||||||||||||||||||
||||||||||||||||||||||||||||||||||||||||||||||||||||||||||||||||||||||||||
|------|----------------|-------------------|----------------------------|
|------|---------------5|-------------------|----------------------------|
|------|-----5-------7--|-5h7p5-----5-------|----------------------------|
|---5-6|-7-------7------|-------7-7-----7---|-5-7-7---------2---2--------|
|-7----|---7------------|-------------------|-------5-7---5-0---0--------|
|------|----------------|-------------------|-----------8----------------|

?Need a woman. gonna hold my hand, will tell me no lies, make me a happy man?

|------|----------------|-------------------|----------------------------|
|------|-----4-------7-8|-5h7p5-----4-------|----------------------------|
|---4-5|-6-------6------|-------6-6-----6---|-4-6-6----------------------|
|-7----|---7------------|-------------------|-------5-7---4--------------|
|------|----------------|-------------------|-----------7---7------------|
|------|----------------|-------------------|----------------------------|
||||||||||||||||||||||||||||||||||||||||||||||||||||||||||||||||||||||||||
||||||||||||||||||||||||||||||||||||||||||||||||||||||||||||||||||||||||||
|------|----------------|-------------------|----------------------------|
|------|---------------5|-------------------|----------------------------|
|------|-----5-------7--|-5h7p5-----5-------|----------------------------|
|---5-6|-7-------7------|-------7-7-----7---|-5-7-7---------2------------|
|-7----|---7------------|-------------------|-------5-7---5-0------------|
|------|----------------|-------------------|-----------8----------------|

?Ah ah ah ah ah ah ah ah ah ah ah ah ahhhhhhhhhhh?
|-----------------------------------------------------------|
|-----------------------------------------------------------|
|-----------------------------------------------------------|
|-----------------------------------------------------------|
|---------------------------------------------0/4-0-----0-3/|
|-----------------------------------------0/2-------2-0-----|

|--------------------5----|--------------------5----|--------------------5--------|
|-------------------------|-------------------------|----------------------------3|
|--------2---2-4b(6)------|--------2---2-4b(6)------|--------2---2-4b(6)---5b(7)--|
|----2-4---4--------------|----2-4---4--------------|----2-4---4------------------|
|-/4-------------------0-3|-/4-------------------0-3|-/4--------------------------|
|-------------------------|-------------------------|-----------------------------|

|--------------------5----|--------------------5----|--------------------5--------|
|-------------------------|-------------------------|----------------------------3|
|--------2---2-4b(6)------|--------2---2-4b(6)------|--------2---2-4b(6)---5b(7)--|
|----2-4---4--------------|----2-4---4--------------|----2-4---4------------------|
|-/4-------------------0-3|-/4-------------------0-3|-/4--------------------------|
|-------------------------|-------------------------|-----------------------------|

|----------------|-5---5-7b(9)-----7-5|-5-5-5--------8-10|-10-10b(12)---12/10-8-10/12-10|
|---------------5|-5------------------|-5-5-5/10---------|------------------------------|
|-5-4-2---2h4-2--|--------------------|------------------|------------------------------|
|-------4--------|--------------------|------------------|------------------------------|
|----------------|--------------------|------------------|------------------------------|
|----------------|--------------------|------------------|------------------------------|

|-8-10---8---10-10---|---8----------10b(12)-10|-8-10---------------------|
|--------------------|-----------10-----------|----------------15b(17)>>>|
|--------------------|------------------------|--------------0-----------|
|--------------------|------------------------|--------------------------|
|--------------------|------------------------|--------------------------|
|--------------------|------------------------|--------------------------|

|-----------------------------|-------------------------|-----------17-----------------|
|-15>>>>>r15-13-15b(17)-----15|-13---15b(17)-15---------|----------------------------17|
|-----------------------------|-------------------------|-19b(21)--------19b(21)-------|
|-----------------------------|-------------------------|------------------------------|
|-----------------------------|-------------------------|------------------------------|
|-----------------------------|-------------------------|------------------------------|

|-17--------------17-20----------|--------------------------|-17-----------------------|
|----17-20b(22)-----------20b(22)|-r20-------17-------------|----20-----17-20b(22)-----|
|--------------------------------|-------x--------19b(21)---|--------------------------|
|--------------------------------|--------------------------|--------------------------|
|--------------------------------|--------------------------|--------------------------|
|--------------------------------|--------------------------|--------------------------|

|---17---------------------|------------------20|---------------------------------|
|------20-17---------------|--------20b(22)-----|---20b(22)r20-17---19b(21)-------|
|--------------17b(19)---20|--------------------|-------------------------------19|
|--------------------------|--------------------|---------------------------------|
|--------------------------|--------------------|---------------------------------|
|--------------------------|--------------------|---------------------------------|

|----------------------|---------5-------------5----|---------5-------------5----|
|-----------------5-5-5|-------5---8p5-------5---8p5|-------5---8p5-------5---8p5|
|-17----19-17----------|-7b(9)---------7b(9)--------|-7b(9)---------7b(9)--------|
|----19----------------|----------------------------|----------------------------|
|----------------------|----------------------------|----------------------------|
|----------------------|----------------------------|----------------------------|

|---------5-------------5----|-------------------------|------------------|--------------------|
|-------5---8p5-------5---8p5|-8p5---------------------|------------------|--------------------|
|-7b(9)---------7b(9)--------|-----7p5-7-5---7-5-------|-----------5------|-5-7b(9)-------7-7-7|
|----------------------------|-------------7-----------|-7-5-7-----------7|-------------7------|
|----------------------------|-------------------------|------------------|--------------------|
|----------------------------|-------------------------|------------------|--------------------|

|------------------------|------------------|--------------------|--------------------|
|-----------------8------|------------------|--------------------|--------------------|
|-7b(9)---7-5---5---7b(9)|-7-5---7----------|-5---------5--------|-7---------5--------|
|-------------7----------|-----7-------5-6-7|-----5-6-7-----5-6-7|-----5-6-7-----5-6-7|
|------------------------|------------------|--------------------|--------------------|
|------------------------|------------------|--------------------|--------------------|

|----------------------|-----------------|-------------------5-----|-------------------5-----|
|----------------------|-----------------|-------------------------|-------------------------|
|-7---------5----------|-----------------|-------2---2-4b(6)-------|-------2---2-4b(6)-------|
|-----5-6-7-------5-6-7|-----------------|---2-4---4---------------|---2-4---4---------------|
|-----------------5-6-7|-5-3-4---------3/|-4---------------------3/|-4---------------------3/|
|----------------------|-------3---------|-------------------------|-------------------------|

|-------------------5-----|-----------------|-----------------5----|----8---9---10b(12)---|
|-------------------------|-----------------|---------------5---/10|----------------------|
|-------2---2-4b(6)-------|-----------------|-------2---2/6--------|----------------------|
|---2-4---4---------------|-----------------|---2-4---4------------|----------------------|
|-4-----------------------|-5-3-4---------3/|-4--------------------|----------------------|
|---------------------4-7-|-------3---------|----------------------|----------------------|

|-10---10b(12)---10---10b(12)-10|-8-10-10b(12)-8----------|----8--------------------|
|-------------------------------|--------------------10-10|------------10-13b(16)>>>|
|-------------------------------|-------------------------|-------------------------|
|-------------------------------|-------------------------|-------------------------|
|-------------------------------|-------------------------|-------------------------|
|-------------------------------|-------------------------|-------------------------|

|--------------------------|--------------------------|----------------------|
|----10-----x-10-13b(16)>>>|---10-----10-10-15-15b(17)|---15-13----15---13---|
|--------------------------|--------------------------|---------14---------14|
|--------------------------|--------------------------|----------------------|
|--------------------------|--------------------------|----------------------|
|--------------------------|--------------------------|----------------------|


  (Fade Out)
|-----------15----------|-------------------15b(17)|----------------------15b(17)|
|-15---13--------15b(17)|-r15p13----15-13----------|-15p13----15-13----13--------|
|-----------------------|--------14----------------|-------14-------14-----------|
|-----------------------|--------------------------|-----------------------------|
|-----------------------|--------------------------|-----------------------------|
|-----------------------|--------------------------|-----------------------------|

Messages les plus consultés