How to Play La Grange by ZZ Top on Guitar

How to Play Foxy Lady by Jimi Hendrix on Guitar

Kenny Wayne Shepherd- Voodoo Chile

How to Play Voodoo Child by Jimi Hendrix on Guitar part 2 of 2

How to Play Voodoo Child by Jimi Hendrix on Guitar part 1 of 2

Hotel California - Eagles (aula de violão)

I Love Rock N' Roll - Joan Jett & The Blackhearts (aula de guitarra)

Paranoid - Black Sabbath

Back in Black - AC/DC (aula de guitarra - riff)

Paranoid - Black Sabbath (aula de guitarra)

Purple Haze - Jimi Hendrix (aula de guitarra)

Rock and Roll - (Led Zeppelin - TSRTS) Lesson

How to play Black Dog by Led Zeppelin on guitar

Rival Sons - Keep on Swinging [Guitar Cover]

Tell Me Something Tab by Rival Sons

Standard Tuning

INTRO                                                  x4
e-------------------------------------------------------|
B-------------------------------------------------------|
G----------------4b--------6b-6p4-6p4-------------------|
D-xx--4h6-6p4-6-----6h4-6-------------6p3-4p3-4p3-4-----|
A-xx------------------------------------------------2~--|
E-------------------------------------------------------|

VERSE
e-------------------------------|
B-------------------------------| then play
G-------------------------------| the following
D------6~--4p3-4p3----------6~--|
A------------------2~-----------|
E--4-4------------------4-4-----|


1st time                    2nd time              3rd time
e--------------------------|---------------------|------------------|
B-6-6br-4------------------|---------------------|------------------|
G---------4---4---4h6p4----|-6b-6b-6b-6b-6r-4----|------------------|
D-----------6---6-------6--|------------------6--|------------------|
A--------------------------|---------------------|-2-4-4br-4-2-4-2--|
E--------------------------|---------------------|------------------|

4th time
e----------------|
B----------------|
G-4/6-6-6\5-5/6--|
D-4/6-6-6\5-5/6--|
A----------------|
E----------------|

0.47
BRIDGE
e-----------------------------------------------------------------------------------|
B-------------8-9-9p8-9p8----------------8-9p8-9p8-9/11--------------8-9-9p8-9p8----|
G-88888--8-10-------------8--88888--8-10-----------------88888--8-10-------------8--|
D-88888----------------------88888-----------------------88888----------------------|
A-66666----------------------66666-----------------------66666----------------------|
E-----------------------------------------------------------------------------------|

BRIDGE cont.
e---------------|
B---------------|
G--88888--------|
D--88888--4--5--|
A--66666--4--5--|
E---------2--3--|

CHORUS                                                x4
e-------------------------------------------------------|
B-------------------------------------------------------|
G----------------4b--------6b-6p4-6p4-------------------|
D-xx--4h6-6p4-6-----6h4-6-------------6p3-4p3-4p3-4-----|
A-xx------------------------------------------------2~--|
E-------------------------------------------------------|

VERSE
e-------------------------------|
B-------------------------------| then play
G-------------------------------| the following
D------6~--4p3-4p3----------6~--|
A------------------2~-----------|
E--4-4------------------4-4-----|

5th time           6th time           7th time              8th time
e-----------------|-----------------|---------------------|--------------------------|
B-----------------|-----------------|---------------------|--------------------------|
G-----------------|--4h6-6p4-6p4----|---------------------|--------------------------|
D--9p6-6-9-6-9p6--|--------------6--|---------------------|--------------------------|
A-----------------|-----------------|----2-4-4b-4b-4p2----|--------------------------|
E-----------------|-----------------|--4---------------4--|--slide-pick up-E-string--|


THEN PLAY BRIDGE


THEN PLAY CHORUS

2.20 SOLO THING
e----------------------------------------------------------------------------------------|
B------------------------------------------------------------------------------55555555--|
G--4----4----4----4h6p4--4----4---4h6-7p6-4h6-4--4---4---4----4h6p4--4----4----44444444--|
D----h6---6----h6----------h6---6-----------------h6---6---h6----------h6---6------------|
A----------------------------------------------------------------------------------------|
E---------------

The Rival Sons - Tell Me Something

Memphis Sun Tab by Rival Sons

Standard Tuning

INTRO                                                    x2          
e------------------------------------------------------------|
B----------12-12--------12-12-------12-10p9-10p9-10p9--------|bend the 11
G----------------11-----------11----------------------11(b)--|on last time
D-11-11-11----------11-----------13--------------------------|
A------------------------------------------------------------|
E------------------------------------------------------------|

MAIN RIFF
e--------------------------|
B--------------------------|
G---------------------11~--|
D--11-11-11-11-11-11--11~--|
A--11-11-11-11-11-11--9-~--|
E--9--9--9--9--9--9--------|


FILLS 0.22            0.28   
e-------------------|-----------------|
B-------------------|-----------------|
G--9-9-9-9-9--------|-----------------|
D------------11-9~--|--11p9----9-11~--|
A-------------------|-------11--------|
E-------------------|-----------------|


SOLO THING 0.30
e--------------------------------------------------------|
B--------------------------------------------------------|
G--------------------------------------------------------|
D-----9b--9p6-9/11-----------------------------------9b--|
A--9b----------------9p7-9-7br-----9p7-9p7-9-9-7br-------|
E------------------------------9-------------------9-----|

BRIDGE
e----------------------------------|
B----------------------------------|
G----------------------------------|
D----------------------9--9-9---7--|
A--11-11-11-11-11-10-7-9--9-9---7--|
E----------------------7--7-7-0-5--|


CHORUS
e---------------------------------------------------------|
B----------12-12--------12-12-------12-10p9-10p9-10p9-----|
G----------------11-----------11----------------------11--|
D-11-11-11----------11-----------13-----------------------|
A---------------------------------------------------------|
E---------------------------------------------------------|

Rival Sons - Memphis Sun

Keep On Swinging Tab by Rival Sons

E||---------------------------------|---------------------------------||
B||---------------------------------|---------------------------------||
G||---------------------------------|---------------------------------||
D||-------2--------2---4------------|--2------------------------------||
A||---4-------4---------------------|------4----2---------------------||
e||---------------------------------|---------------5---2-------------||

E||---------------------------------|---------------------------------||
B||---------------------------------|------------------2~-------------||
G||---------------------------------|------------------2~-------------||
D||---------------------------------|-----------------------4---------||
A||-------2--------2-----4----------|---2---4---2---------------------||
e||---5-------5---------------------|-------------2-------------------||



E||---------------------------------|---------------------------------||
B||---------------------------------|---------------------------------||
G||---------------------------------|---------------------------------||
D||-------2--------2---4------------|--2------------------------------||
A||---4-------4---------------------|------4----2---------------------||
e||---------------------------------|---------------5---2-------------||

E||---------------------------------|---------------------------------||
B||---------------------------------|------------------2~-------------||
G||---------------------------------|------------------2~-------------||
D||---------------------------------|-----------------------4---------||
A||-------2--------2-----4----------|---2---4---2---------------------||
e||---5-------5---------------------|-------------2-------------------||



E||---------------------------------|---------------------------------||
B||---------------------------------|---------------------------------||
G||---------------------------------|---------------------------------||
D||-------2--------2---4------------|--2------------------------------||
A||---4-------4---------------------|------4----2---------------------||
e||---------------------------------|---------------5---2-------------||

E||---------------------------------|---------------------------------||
B||---------------------------------|------------------2~-------------||
G||---------------------------------|------------------2~-------------||
D||---------------------------------|-----------------------4---------||
A||-------2--------2-----4----------|---2---4---2---------------------||
e||---5-------5---------------------|-------------2-------------------||



E||---------------------------------|---------------------------------||
B||---------------------------------|---------------------------------||
G||---------------------------------|---------------------------------||
D||-------2--------2---4------------|--2------------------------------||
A||---4-------4---------------------|------4----2---------------------||
e||---------------------------------|---------------5---2-------------||

E||---------------------------------|---------------------------------||
B||---------------------------------|------------------4~-------------||
G||---------------------------------|------------------4~-------------||
D||---------------------------------|---------------------------------||
A||-------2--------2-----4----------|---2---4---2---------------------||
e||---5-------5---------------------|-------------2-------------------||



E||---------------------------------|---------------------------------||
B||---------------------------------|---------------------------------||
G||-------------------4-------------|-------------------4-------------||
D||-----4-----4-------4--2--4-------|-----4-----4-------4--2--4-------||
A||--2--4--2--4-------2--0--4-------|--2--4--2--4-------2--0--4-------||
e||--0--2--0--2-------------2-------|--0--2--0--2-------------2-------||


E||---------------------------------|---------------------------------||
B||---------------------------------|---------------------------------||
G||-------------------4-------------|-------------------4-----2-------||
D||-----4-----4-------4--2--4-------|-----4-----4-------4-----2-------||
A||--2--4--2--4-------2--0--4-------|--2--4--2--4---------------------||
e||--0--2--0--2-------------2-------|--0--2--0--2---------------------||



E||---------------------------------|---------------------------------||
B||---------------------------------|---------------------------------||
G||---6--6--6----\9------------ ----|---------------------------------||
D||---6--6--6----\9-----------------|---------------------------------||
A||---4--4--4----\7-----------------|---------------------------------||
e||---------------------------------|---------------------------------||


then repeat through out song...



and end with this...
E||---------------------------------|---------------------------------||
B||---------------------------------|---------------------------------||
G||---------------------------------|---------------------------------||
D||---4--4--4--4--------------------|---4--4--4--4--------------------||
A||---4--4--4--4--------------------|---4--4--4--4--------------------||
e||---2--2--2--2--------------------|---2--2--2--2--------------------||

Rival Sons - Keep On Swinging

Pressure And Time Tab by Rival Sons

Tabbed by: Isaias Garcia (TexasFury)

Tuning: Half-step down


Guitar - rhythm

      Intro                                                 
      S  S S S Q    H           S  S S S Q    H         
D#||-------------------------|-------------------------|
A#||-------------------------|-------------------------|
F#||-------------------------|-------------------------|
C#||---------4---------------|---------4---------------|
G#||-------4-----------------|-------4-----------------|
D#||--2h-5-------------------|--2h-5-------------------|


                                                        Verse 1                      
  S  S S S Q    H           S  S S S Q    Q    Q        S  S S S Q    H         
-------------------------|--------------------------||-------------------------|
-------------------------|--------------------------||-------------------------|
-------------------------|----------------4----2----||-------------------------|
---------4---------------|---------4------4----2----||---------4---------------|
-------4-----------------|-------4--------2----0----||-------4-----------------|
--2h-5-------------------|--2h-5--------------------||--2h-5-------------------|


  S  S S S Q    H           S  S S S Q    H           S  S S S Q    Q    Q     
-------------------------|-------------------------|--------------------------|
-------------------------|-------------------------|--------------------------|
-------------------------|-------------------------|----------------4----2----|
---------4---------------|---------4---------------|---------4------4----2----|
-------4-----------------|-------4-----------------|-------4--------2----0----|
--2h-5-------------------|--2h-5-------------------|--2h-5--------------------|


  S  S S S Q    H           S  S S S Q    H           S  S S S Q    H         
-------------------------|-------------------------|-------------------------|
-------------------------|-------------------------|-------------------------|
-------------------------|-------------------------|-------------------------|
---------4---------------|---------4---------------|---------4---------------|
-------4-----------------|-------4-----------------|-------4-----------------|
--2h-5-------------------|--2h-5-------------------|--2h-5-------------------|


                              Pre-chorus 1                                    
  S  S S S Q    Q    Q        W                   W                 
--------------------------||-------------------|-------------------|
--------------------------||-------------------|-------------------|
----------------4----2----||--2----------------|--2----------------|
---------4------4----2----||--4----------------|--2----------------|
-------4--------2----0----||--4----------------|--0----------------|
--2h-5--------------------||--2----------------|-------------------|


  W                   E  E  E  S S E  E  E  E      W                 
-------------------|-------------7-L------------|--2----------------|
-------------------|------------------7---------|--2----------------|
--8----------------|--L-----8------------8--L\--|--2----------------|
--9----------------|--L--9-----9----------------|--4----------------|
-------------------|----------------------------|-------------------|
-------------------|----------------------------|-------------------|


  W                   W                   W                 
-------------------|-------------------|-------------------|
-------------------|-------------------|-------------------|
--2----------------|--8----------------|--L----------------|
--2----------------|--9----------------|--L----------------|
--0----------------|-------------------|-------------------|
-------------------|-------------------|-------------------|


  S  S S S Q    H           S  S S S Q    H           S  S S S Q    H         
-------------------------|-------------------------|-------------------------|
-------------------------|-------------------------|-------------------------|
-------------------------|-------------------------|-------------------------|
---------4---------------|---------4---------------|---------4---------------|
-------4-----------------|-------4-----------------|-------4-----------------|
--2h-5-------------------|--2h-5-------------------|--2h-5-------------------|


                              Verse 2                                                
  S  S S S Q    Q    Q        S  S S S Q    H           S  S S S Q    H         
--------------------------||-------------------------|-------------------------|
--------------------------||-------------------------|-------------------------|
----------------4----2----||-------------------------|-------------------------|
---------4------4----2----||---------4---------------|---------4---------------|
-------4--------2----0----||-------4-----------------|-------4-----------------|
--2h-5--------------------||--2h-5-------------------|--2h-5-------------------|


  S  S S S Q    H           S  S S S Q    Q    Q       S  S S S Q    H         
-------------------------|--------------------------|-------------------------|
-------------------------|--------------------------|-------------------------|
-------------------------|----------------4----2----|-------------------------|
---------4---------------|---------4------4----2----|---------4---------------|
-------4-----------------|-------4--------2----0----|-------4-----------------|
--2h-5-------------------|--2h-5--------------------|--2h-5-------------------|


  S  S S S Q    H           S  S S S Q    H           S  S S S Q    Q    Q     
-------------------------|-------------------------|--------------------------||
-------------------------|-------------------------|--------------------------||
-------------------------|-------------------------|----------------4----2----||
---------4---------------|---------4---------------|---------4------4----2----||
-------4-----------------|-------4-----------------|-------4--------2----0----||
--2h-5-------------------|--2h-5-------------------|--2h-5--------------------||


  Pre-chorus 2                                                                            
  W                   W                   W                   W                 
-------------------|-------------------|--7----------------|--L----------------|
-------------------|-------------------|--7----------------|--L----------------|
--2----------------|--2----------------|--8----------------|--L----------------|
--4----------------|--2----------------|--9----------------|--L----------------|
--4----------------|--0----------------|-------------------|-------------------|
--2----------------|-------------------|-------------------|-------------------|


  W                   W                   Q.     E  Q.     E   
--2----------------|-------------------|-------------------7--|
--2----------------|-------------------|--7------7--L------7--|
--2----------------|--2----------------|--8------8--L---------|
--4----------------|--2----------------|--9------9--L---------|
--4----------------|--0----------------|----------------------|
--2----------------|-------------------|----------------------|


   E   E   Q     S  S  S  S  E   E    
--10--10--10----12-12-12-12-12-------|
--10--10--10----12-12-12-12-12--(0)--|
--11--11--11----13-13-13-13-13-------|
--12--12--12----14-14-14-14-14-------|
-------------------------------------|
-------------------------------------|


  |-3| |--3-| |-3| |--3-| |-3| |--3-| |-3| |--3-|  
  E  S S  S S E  S S  S S E  S S  S S E  S S  S S  
--------------------------------------------------|
--------------------------------------------------|
--------------------------------------------------|
--4--4-4p-2---4--4-4p-2---4--4-4p-2---4--4-4p-2---|
------------4-----------4-----------4-----------4-|
--------------------------------------------------|


                                                      Guitar Solo                       
  |-3| |--3-| |-3| |--3-| |-3| |--3-| |-3| |--3-|                            
  E  S S  S S E  S S  S S E  S S  S S E  S S  S S     S  S S S Q    H         
--------------------------------------------------||-------------------------|
--------------------------------------------------||-------------------------|
--------------------------------------------------||-------------------------|
--4--4-4p-2---4--4-4p-2---4--4-4p-2---4--4-4p-2---||---------4---------------|
------------4-----------4-----------4-----------4-||-------4-----------------|
--------------------------------------------------||--2h-5-------------------|


  S  S S S Q    H           S  S S S Q    H           S  S S S Q    Q    Q     
-------------------------|-------------------------|--------------------------|
-------------------------|-------------------------|--------------------------|
-------------------------|-------------------------|----------------4----2----|
---------4---------------|---------4---------------|---------4------4----2----|
-------4-----------------|-------4-----------------|-------4--------2----0----|
--2h-5-------------------|--2h-5-------------------|--2h-5--------------------|


  S  S S S Q    H           S  S S S Q    H           S  S S S Q    H         
-------------------------|-------------------------|-------------------------|
-------------------------|-------------------------|-------------------------|
-------------------------|-------------------------|-------------------------|
---------4---------------|---------4---------------|---------4---------------|
-------4-----------------|-------4-----------------|-------4-----------------|
--2h-5-------------------|--2h-5-------------------|--2h-5-------------------|


                              Breakdown                                     
  S  S S S Q    Q    Q        W                   W                 
--------------------------||-------------------|-------------------|
--------------------------||-------------------|-------------------|
----------------4----2----||-------------------|--2----------------|
---------4------4----2----||--4----------------|--2----------------|
-------4--------2----0----||--4----------------|--0----------------|
--2h-5--------------------||--2----------------|-------------------|


                                  |--3--|                                
  W                   E  E  E  E  S  S  S E  E  E      W                 
-------------------|-----7--------------------------|-------------------|
-------------------|--------7-----7h-9p-7-----------|-------------------|
--8----------------|--L--------8----------8---------|-------------------|
--9----------------|--L----------------------9--L\--|--4----------------|
-------------------|--------------------------------|--4----------------|
-------------------|--------------------------------|--2----------------|


  W                   W                   Q.     E  Q    Q     
-------------------|-------------------|--9-------------------|
-------------------|-------------------|---------7--L---------|
--2----------------|--8----------------|-----------------8----|
--2----------------|--9----------------|----------------------|
--0----------------|-------------------|----------------------|
-------------------|-------------------|----------------------|


  W                   W                   H.           Q     
-------------------|-------------------|--------------------|
-------------------|-------------------|--------------------|
-------------------|--2----------------|--8-----------------|
--4----------------|--2----------------|--9------------9----|
--4----------------|--0----------------|--------------------|
--2----------------|-------------------|--------------------|


  Q.     E  H           W                   W                 
--9------------------|-------------------|-------------------|
---------7-----------|-------------------|-------------------|
------------8--------|-------------------|--2----------------|
---------------------|--4----------------|--2----------------|
---------------------|--4----------------|--0----------------|
---------------------|--2----------------|-------------------|


  H        H            E   E   Q     S  S  S  S  E   E    
--------------------|--10--10--10----12-12-12-12-12-------||
--7-----------------|--10--10--10----12-12-12-12-12--(0)--||
--8--------8--------|--11--11--11----13-13-13-13-13-------||
--9-----------------|--12--12--12----14-14-14-14-14-------||
--------------------|-------------------------------------||
--------------------|-------------------------------------||


  Outro                                                                           
  S  S S S Q    H           S  S S S Q    H           S  S S S Q    H         
-------------------------|-------------------------|-------------------------|
-------------------------|-------------------------|-------------------------|
-------------------------|-------------------------|-------------------------|
---------4---------------|---------4---------------|---------4---------------|
-------4-----------------|-------4-----------------|-------4-----------------|
--2h-5-------------------|--2h-5-------------------|--2h-5-------------------|


  S  S S S Q    Q    Q       S  S S S Q    H           S  S S S Q    H         
--------------------------|-------------------------|-------------------------|
--------------------------|-------------------------|-------------------------|
----------------4----2----|-------------------------|-------------------------|
---------4------4----2----|---------4---------------|---------4---------------|
-------4--------2----0----|-------4-----------------|-------4-----------------|
--2h-5--------------------|--2h-5-------------------|--2h-5-------------------|


  S  S S S Q    H           S  S S S Q    S E.  S E.     Q    Q    H          
-------------------------|----------------------------|---------------------||
-------------------------|----------------------------|---------------------||
-------------------------|------------------4-----2---|---------------------||
---------4---------------|---------4--------4-----2---|-------4-------------||
-------4-----------------|-------4----------2-----0---|-------4-------------||
--2h-5-------------------|--2h-5----------------------|-------2-------------||




Guitar - solo - m.43

                   |--3--|                        |--3--|           
      H         E  S  S  S S E.      Q    S  S E  S  S  S E  Q      
D#||------------------------------|--------------------------------|
A#||--2---------L-----------------|----------2-2-------------------|
F#||--4b--------L--4b-Lb-2-4-2b---|-------4b------4b-Lb-2----------|
C#||------------------------------|-----------------------4--4~----|
G#||------------------------------|--------------------------------|
D#||------------------------------|--------------------------------|


                           PM                                              
  Q    E   S  S  Q      S  S  S  S    Q     S   S  S  S  S  S  S  S  Q     
-----------------------------------|-------17b-17-14----------------------|
----------17-----------------------|-----------------14----14-------------|
-------------16b-Lb----14----------|--------------------16----14----------|
--------------------------16-14-16-|-----------------------------16-------|
-----------------------------------|--------------------------------16----|
-----------------------------------|--------------------------------------|


                                    |--3--|                          
  S S S S S S E  S S S S Q       E  S  S  S Q    E.   S   E    S  S  
-----------------2-2-2-2-2----|-------------------------------------|
--2-2-2-2-2------2-2-2-2-2----|-----5b-Lb-2----------17b--Lb--17-14-|
--2-2-2-2-2-4----2-2-2-2-2----|-------------4-----------------------|
------------------------------|-------------------------------------|
------------------------------|-------------------------------------|
------------------------------|-------------------------------------|


                  PM                             
   S  S   S  S S  S  E    S  S  S  S  S  S  E    
-----------------------------------------------|
--17-----14------------------------------------|
-----16b-14-14------14b------------------------|
-----------------16---------14-----------------|
-------------------------16----16-15-14-12-----|
-------------------------------------------14--|


  m.74

  H         E.    S   Q       
----------------------------||
-----------17-----L--14b----||
-----------16b----Lb-14b----||
----------------------------||
----------------------------||
----------------------------||



Rival Sons - Pressure And Time

Messages les plus consultés